Nirvana

home > Nirvana

Pennyroyal Tea (acustico) Tab

Nirvana

Difficulty: BeginnerBeginner

by meta11eir0

tuner correct add songbook print version text version save to e-mail
chordsukulelecavacokeyboardtabbassdrumsharmonicsflute Guitar Pro
chords

Pennyroyal Tea (acustico)

  		Nirvana 
Pennyroyal tea (acustico) 
 
Tabbed by kurt826 
 
e:0------0-----0-----------0-----0-------------3-----3----------3-----3--| 
B:1------1-----1-----------1-----1-------------0-----0----------0-----0--| 
G:2------2-----2-----------2-----2-------------0-----0----------0-----0--| 
D:2---------2-----2-----2-----2-----2-------------0----------------0-----| 
A:0----0-------------0---------------------2----------------2------------| 
E:--------------------------------------3----------------3---------------| 
  -I'm on my time with everyone... 
 
e:----3---| 
B:----0---| 
G:----0---| 
D:----0---| 
A:----2---| 
E:----3---| 
 -Sit and drink pennyroyal tea...    
 
e:----------------------------------------------------------------------| 
B:----------------------------------------------------------------------| 
G:---|>5--5-5--5-5-5-5/7--7-7--7-7---3--3-3-3--3-3-3--3-3-3-3-3-3-3-3/|-| 
D:---|>5--5-5--5-5-5-5/7--7-7--7-7---3--3-3-3--3-3-3--3-3-3-3-3-3-3-3/|-| 
A:---|>3--3-3--3-3-3-3/5--5-5--5-5---1--1-1-1--1-1-1--1-0-1-0-1-0-1-0/|-| 
E:---|----------------------------------------------------------------|-| 
 -I'm anemic Royalty... 
 
e:--------------------------------------------------------------| 
B:--------------------------------------------------------------| 
G:-5--5-5--5-5-5-5/7--7-7--7-7---3--3-3-3--3-3-3--3-3-3-3-3-3-3-| 
D:-5--5-5--5-5-5-5/7--7-7--7-7---3--3-3-3--3-3-3--3-3-3-3-3-3-3-| 
A:-3--3-3--3-3-3-3/5--5-5--5-5---1--1-1-1--1-1-1--1-1-1-1-1-1-1-| 
E:--------------------------------------------------------------| 
                                                
 Solo 
e:-----------------------------------------------------------3----3-3-2-0----| 
B:------------------------------------------------------------------------3-2| 
G:--------2b(3)--2/3\2-------------2b(3)---2b(3)-----------------------------| 
D:-----2----------------2-------2--------2-------2---------------------------| 
A:--0------------------------0----------------------------2------------------| 
E:-----------------------------------------------------3---------------------| 
 
e:----3-3-2-0-----------| 
B:------------3-2-0-----| 
G:------------------2-0-| 
D:----------------------| 
A:----------------------| 
E:----------------------| 
 
e:-------------------------------------------------------------------------| 
B:-----5----5---5-5/7-----7----7--------3----3--3-3-3-3-3-3-3-3---------5--| 
G:-----5----5---5-5/7-----7----7--------3----3--3-3-3-3-3-3-3-3---------5--| 
D:---5----5-----5-5/7-----7----7------3----3----3-3-3-3-3-3-3-3-------5----| 
A:-3------------3-3/5---5----5------1-----------1-0-1-0-1-0-1-0-----3------| 
E:-------------------------------------------------------------------------| 
 
B:--5---5-5/7-----7----7----3-3-3-3-3-3-3-| 
G:--5---5-5/7-----7----7----3-3-3-3-3-3-3-| 
D:5-----5-5/7-----7----7----3-3-3-3-3-3-3-| 
A:------3-3/5---5----5------1-1-1-1-1-1-1-| 
E:----------------------------------------| 
 
Depois do solo toque o veso e o refrao novamente uma vez e pronto 
 

	  

Search Paypal
auto scroll beats size up size down change color hide chords drawings
tab show chords e-chords YouTube Clip e-chords hide all tabs e-chords go to top tab