Nirvana

home > Nirvana

Louge Act Tab

Nirvana

Difficulty: BeginnerBeginner

by meta11eir0

tuner correct add songbook print version text version save to e-mail
chordsukulelecavacokeyboardtabbassdrumsharmonicsflute Guitar Pro
chords

Louge Act

  		Nirvana           
Lounge Act 
  
(A introdução é feita no baixo) 
 
e-------------------3-3-----0-0-0-------------------------| x7 
B--4-4--x--4--4-4---0-0-0---1-1-1-0-----------------| 
G--4-4--x--4--4-4---0-0-0---0-0-0-0-----------------| 
D--4-4--x--4--4-4---0-0-0---2-2-2-0-----------------| 
A--2-2--x--2--2-2---2-2-0---3 3-3-0-----------------| 
E-------------------3-3-----0-------------------------------| 
 
e--------------2-2---3-3----------------------------------| x4 
B--------2-2---3-3---0-0--------------------------------| 
G-1-1----2-2---2-2---0-0------------------------------| 
D-2-2-0--2-2-0-0-0-0-0-0----------------------------| 
A-2-2-0--0-0-0-0-0-0-2-2----------------------------| 
E-0-0----0-0---0-0---3-3------------------------------| 
   
e-----------------------------------------------------| 
B--2-------------------2----------------------------| 
G--2-------------------2----------------------------| 
D--2-------------------2-----------------------------| 
A-----------------------------------------------------| 
E-----------------------------------------------------| 
 
e-------------------3-3-----0-0-0-------------------------| x7 
B--4-4--x--4--4-4---0-0-0---1-1-1-0-----------------| 
G--4-4--x--4--4-4---0-0-0---0-0-0-0-----------------| 
D--4-4--x--4--4-4---0-0-0---2-2-2-0-----------------| 
A--2-2--x--2--2-2---2-2-0---3 3-3-0-----------------| 
E-------------------3-3-----0------------------------------| 
 
e--------------2-2---3-3----------------------------------| x7 
B--------2-2---3-3---0-0--------------------------------| 
G-1-1----2-2---2-2---0-0------------------------------| 
D-2-2-0--2-2-0-0-0-0-0-0----------------------------| 
A-2-2-0--0-0-0-0-0-0-2-2----------------------------| 
E-0-0----0-0---0-0---3-3------------------------------| 
 
e-----------------------------------------------------| 
B--2-------------------2----------------------------| 
G--2-------------------2----------------------------| 
D--2-------------------2----------------------------| 
A-----------------------------------------------------| 
E-----------------------------------------------------| 
 
e--------------------------------------------------------------| x7 (c/ distorção) 
B-------------------------------------------------------------| 
G--4-4--x--4--4-4-0-------5-5-5-0---------------------| 
D--4-4--x--4--4-4-0-5-5---5-5-5-0--------------------| 
A--2-2--x--2--2-2-0-5-5-x-3-3-3-0-------------------| 
E-------------------3-3-x-----------------------------------| 
 
e-------------------------0---------------------------------| x7 (c/ distorção) 
B--------2-2--------------0-------------------------------| 
G--------2-2----7-7-------0-----------------------------| 
D-2-2-0--2-2-0--7-7---5-5-0-------------------------| 
A-2-2-0--0-0-0--5-5-x-5-5-0------------------------| 
E-0-0----0-0--------x-3-3-0---------------------------| 
 
e-----------------------------------------------------| 
B--2-------------------2----------------------------| x4 (c/ distorção) 
G--2-------------------2----------------------------| 
D--2-------------------2----------------------------| 
A-----------------------------------------------------| 
E-----------------------------------------------------| 
	  

Full key step upFull key step up
Half key step upHalf key step up
Half key step downHalf key step down
Full key step downFull key step down
Search Paypal
auto scroll beats size up size down change color hide chords drawings
tab show chords e-chords YouTube Clip e-chords hide all tabs e-chords go to top tab