Nirvana

home > Nirvana

Jesus doesn't want me for a sunbeam-solo Tab

Nirvana

Difficulty: EasyEasy

by kurt%5Fstringer

tuner correct add songbook print version text version save to e-mail
chordsukulelecavacokeyboardtabbassdrumsharmonicsflute Guitar Pro
chords

Jesus doesn't want me for a sunbeam-solo

  		This is the solo of a concert of nirvana in 1991 
is the same sound that the unplugged 
 
 
 
 
/: slide 
 
----------------------------------| 
----9-7--------7------------------| 
9-9-----9--7-7---9-7-----7/6------| 
---------------------7-7-----7-7--| 
----------------------------------| 
----------------------------------| 
 
------------------------------------------------| 
----9-7-----------------------------------------| 
9-9-----9--7-7--9-7-6-----7/6-------------------| 
----------------------7-7-----7-7--6-7--6-7--6-7| 
------------------------------------------------| 
------------------------------------------------| 
 
 

	  

Search Paypal
auto scroll beats size up size down change color hide chords drawings
tab show chords e-chords YouTube Clip e-chords hide all tabs e-chords go to top tab