Nirvana

In Bloon Tab

Nirvana

Difficulty: BeginnerBeginner

by Helison%5FNoturno

tuner correct add songbook print version text version save to e-mail
chordsukulelecavacokeyboardtabbassdrumsharmonicsflute Guitar Pro
close

there isn't a video lesson for this song

request
chords

In Bloon

  		NIRVANA_IN BLOON (TABLATURA) 
 
Códigos: 
 
) = bend (puxada curta) 
/ = slide para cima 
\ = slide para baixo 
PM = abafar 
(x) = raspar o dedo 
~ = vibrato 
/\/\ = vibrato 
Trem = tocar a nota o mais rápido possivel 
 
 
INTRO 
 
e|-------------------------------------------------------------------------- 
B|-------------------------------------------------------------------------- 
G|--3--3-3/----------------------------------------------------------------- 
D|--3--3-3/---5----------------3--3--3/6--4--------------------------------- 
A|--1--1-1/---5----------------3--3--3/5--4----------------0---------------- 
E|------------3----------------1--1--1/4--4--4----1--4---------------------- 
 
e|-------------------------------------------------------------------------- 
B|-------------------------------------------------------------------------- 
G|--3--3-3/----------------------------------------------------------------- 
D|--3--3-3/----5------------3--3-3/6---6------------------------------------ 
A|--1--1-1/----5------------3--3-3/6---6------------------------------------ 
E|-------------3------------1--1-1/4---4------------------------------------ 
 
e|-------------------------------------------------------------------------- 
B|-------------------------------------------------------------------------- 
G|--3-3-3-3-3-x---------------0-/8-8-8-8-8-x-0-4-4-4-4-0-2-2-2-------------- 
D|--3-3-3-3-3-x-0-4-4-4-4-4-x-0-/8-8-8-8-8-x-0-4-4-4-4-0-2-2-2-------------- 
A|--1-1-1-1-1-x-0-4-4-4-4-4-x-0-/6-6-6-6-6-x-0-2-2-2-2-0-0-0-0-------------- 
E|--------------0-2-2-2-2-2-x----------------------------------------------- 
 
 
LETRA (TOCAR DUAS VEZES) 
 
e|--1-1-1-1-1--------------------------------------------------------------- 
B|--3-3-3-3-3-x-0--2-2-2-2-2---0-8-8-8-8-x-0-4-4-4-2-2-2-------------------- 
G|--3-3-3-3-3-x-0--3-3-3-3-3-x-0-8-8-8-8-x-0-4-4-4-2-2-2-------------------- 
D|--3-3-3-3-3-x-0--4-4-4-4-4-x-0-8-8-8-8-x-0-4-4-4-2-2-2-------------------- 
A|--1-1-1-1-1-x-0--4-4-4-4-4-x-0-6-6-6-6-x-0-2-2-2-0-0-0-------------------- 
E|-----------------2-2-2-2-2-x---------------------------------------------- 
 
e|--1-1-1-1-1--------------------------------------------------------------- 
B|--3-3-3-3-3-x-0--2-2-2-2-2---0-8--8-8--8--8-8----------------------------- 
G|--3-3-3-3-3-x-0--3-3-3-3-3-x-0-8--8-8--8--8-8----------------------------- 
D|--3-3-3-3-3-x-0--4-4-4-4-4-x-0-8--8-8--8--8-8----------------------------- 
A|--1-1-1-1-1-x-0--4-4-4-4-4-x-0-6--6-6--6--6-6----------------------------- 
E|-----------------2-2-2-2-2-x---------------------------------------------- 
 
 
JOGAR DISTORÇÃO 
 
e|-------------------------------------------------------------------------- 
B|-------------------------------------------------------------------------- 
G|--4-----------------7----------------------------------------------------- 
D|--4-----------------7----------------------------------------------------- 
A|--2-----------------5----------------------------------------------------- 
E|-------------------------------------------------------------------------- 
Trem-------------- 
 
 
Refrão 
 
e|-------------------------------------------------------------------------- 
B|-------------------------------------------------------------------------- 
G|--3--3-3--3--3-0--------------0--3--3-3--3--3-0--------------0------------ 
D|--3--3-3--3--3-0--5-5--5-5--5-0--3--3-3--3--3-0--5-5--5-5--5-0------------ 
A|--1--1-1--1--1-0--5-5--5-5--5-0--1--1-1--1--1-0--5-5--5-5--5-0------------ 
E|------------------3-3--3-3--3--------------------3-3--3-3--3-------------- 
 
 
TOCAR DUAS VEZES 
 
e|-------------------------------------------------------------------------- 
B|-------------------------------------------------------------------------- 
G|--5--5--5-5-5-5-5/8-8-8-8-8-8-8-8--5--5--5-5-5-5-5/8-8-8-8-8-8-8-8-------- 
D|--5--5--5-5-5-5-5/8-8-8-8-8-8-8-8--5--5--5-5-5-5-5/8-8-8-8-8-8-8-8-------- 
A|--3--3--3-3-3-3-3/6-6-6-6-6-6-6-6--3--3--3-3-3-3-3/6-6-6-6-6-6-6-6-------- 
E|-------------------------------------------------------------------------- 
 
 
SOLO 
 
e|-------------------------------------------------------------------------- 
B|---)~~~~~~~~~~~~~~~~~~~~~--------)-----(--------------)------(------------ 
G|--8-----------------------------8-------8-(0)--6---(6)--------(6)--6------ 
D|-------------------------------------------------------------------------- 
A|-------------------------------------------------------------------------- 
E|-------------------------------------------------------------------------- 
 
e|-------------------------------------------------------------------------- 
B|----------------)----------------)---------------------------------------- 
G|--6/8--6---8---8--------6--8--(8)--8~~6----6--8--8------------------------ 
D|------------------6/8---------------------------------0------------------- 
A|-------------------------------------------------------------------------- 
E|-------------------------------------------------------------------------- 
 
e|-----------------------------------------------)------)------)------------ 
B|-----)-------(----------------8-----8/9---8---9---(11)-----11------------- 
G|--/10---------(10)--10----10---------------------------------------------- 
D|-------------------------------------------------------------------------- 
A|-------------------------------------------------------------------------- 
E|-------------------------------------------------------------------------- 
 
e|-------------)-----(------------------------------------------------------ 
B|--(11)~~~~~11-------(11)---11/-----------8------8------------------------- 
G|-------------------------------------6------6-------6--------------------- 
D|-------------------------------------------------------------------------- 
A|-------------------------------------------------------------------------- 
E|-------------------------------------------------------------------------- 
 
 
FINAL 
 
e|-------------------------------------------------------------------------- 
B|-------------------------------------------------------------------------- 
G|--3----------------------------------------------------------------------- 
D|--3----------------------------------------------------------------------- 
A|--1----------------------------------------------------------------------- 
E|-------------------------------------------------------------------------- 
 
 
FIM 
 
 

	  

Search Paypal
auto scroll beats size up size down change color hide chords drawings
tab show chords e-chords YouTube Clip e-chords hide all tabs e-chords go to top tab

share with facebook