Nirvana

home > Nirvana

Heatsheaped box Tab

Nirvana

Difficulty: BeginnerBeginner

by hommer%5Fnew

tuner correct add songbook print version text version save to e-mail
chordsukulelecavacokeyboardtabbassdrumsharmonicsflute Guitar Pro
chords

Heatsheaped box

  		------------------------------Heart Shaped Box--------------------- 
Tuning:-D-A-D-G-B-E 
 
INTRO 
 
 Guitar 1 
|-----------------------------------------------------------------| 
|-----------------------------------------------------------------| 
|-----2-----------------------------2---------------------------0-| 
|---2---2-----3-3------0----0---2-2---2-----3-----2/4-4---4---4-0-| 
|-0---------3--(3)---0----0---0-0---------3-3-----------0---3-3---| 
|---------3-------0---------------------3-----3-0-----------------| 
|Guitar 2 
|-----------------------------------------------------------------| 
|-----------------------------------------------------------------| 
|-----------------------------------------------------------------| 
|-----------------------------------------------------------------| 
|-------------------------------0---------------------------------| 
|---------3-------0---------------------3-------0-----------------| 
 
 
VERSE 
 
 Guitar 1 
|-----------------------------------------------------------------| 
|-----2-----------------------------------------------------------| 
|-----2-----------------------0-----2-----------------------------| 
|---2---2-----3--------0------2---2-2-------3-----2/4-4---4-----0-| 
|-0---------3---3----0----0-0---0---------3-------------0---3-3---| 
|---------3-------0---------------------3-------0-----------------| 
|Guitar 2 
|-----------------------------------------------------------------| 
|-----------------------------------------------------------------| 
|-----------------------------------2-----------------------------| 
|-----------------------------------2-------3---------------------| 
|-0-----------------------------0---------------------------------| 
|---------------------------------------3-------0-----------------| 
 
 
 Guitar 1 
|-----------------------------------------------------------------| 
|-----2-----------------------------2-----------------------------| 
|-----2-----------------------0-----2-----------------------------| 
|---2---2-----3--------0----0-2---2---2-----3-----2/4-4---4-----0-| 
|-0---------3---3----0----0-----0---------3---3---------0---3-3---| 
|---------3-------0---------------------3-------0-----------------| 
|Guitar 2 
|-----------------------------------------------------------------| 
|----(0)----------------------------------------------------------| 
|-----2-----------------------------2-----------------------------| 
|---2---2-----3---------------------2-------3---(2/)4-4-4-4-------| 
|-0---------3---3---------------0---------------------------3-3---| 
|---------3-------0-----------------------------------------------| 
 
 
 Guitar 1 
|-----------------------------------------------------------------| 
|-----------------------------------------------------------------| 
|-----2---------------------0-------2-----------------------------| 
|---2---2-----3--------0--0---0---2-2-2-----3-----2/4-4---4----(4)| 
|-0---------3---3----0----------0---------3---3---------0---3-3-0-| 
|---------3-------0---------------------3-------------------------| 
|Guitar 2 
|-----------------------------------------------------------------| 
|-----2-----------------------------------------------------------| 
|-----2-----------------------------2-----------------------------| 
|-------------3-------------------2---2-----3-----2/4-4-4-4-------| 
|-0---------3---3---------------0---------3---3-------------3-3-0-| 
|---------3-------0---------------------3-------------------------| 
 
 
 Guitar 1                                        
|-----------------------------------------------------------------| 
|-----2-----------------------------------------------------------| 
|-----2-----------------------0-----2-----------------------------| 
|---2---2-----3--------0----0-0---2---2-----3-----2/4-4---4-------| 
|-0---------3---3----0----0-----0---------3---3---------0---3-3-0-| 
|---------3-------0---------------------3-------0-----------------| 
|Guitar 2                                       ^enter distortion 
|-----------------------------------------------------------------| 
|-----------------------------------------------------------------| 
|-----2-----------------------------2-----------------------------| 
|---2-2-2-----3-----------------2-2---2-----3-----2/4-4-4-4-------| 
|-0---------3---3---------------0---------3---3-------------3-3-0-| 
|---------3-------0---------------------3-------0-----------------| 
                                                ^enter distortion 
                                                  
 
Chorus 
 
 Guitar 1     x3 
|---------------------------------------------------------------------| 
|---------------------------------------------------------------------| 
|-2-2-4b5-----4b5---------------4b5-2-2-4b5-----4b5---------------4b5-| 
|-2-2-----3-3-----0-2/4-4---4-------2-2-----3-3-----0-2/4-4---4-------| 
|-0-0-----3-3-----0-------0---3-----0-0-----3-3-----0-------0---3-----| 
|---------3-3-----0-------------------------3-3-----0-----------------| 
|Guitar 2                                                           x3 
|---------------------------------------------------------------------| 
|---------------------------------------------------------------------| 
|-2-2-4b5-----4b5---------------4b5-2-2-4b5-----4b5---------------4b5-| 
|-2-2-----3-3-----0-2/4-4-4-4-------2-2-----3-3-----0-2/4-4-4-4-------| 
|-0-0-----3-3-----0-----------3-----0-0-----3-3-----0-----------3-----| 
|---------3-3-----0-------------------------3-3-----0-----------------| 
 
 
 Guitar 1 
|---------------------------------------------------------------| 
|---------------------------------------------------------------| 
|---------------------4gb5r4------------------------------------| 
|-3-3-3-3-3-3-3-3-0-----------3-3-3-3-3-3-3-3-0-2/4-4-4-4-----0-| 
|-3-3-3-3-3-3-3-3-0-----------3-3-3-3-3-3-3-3-0-----------3-3-0-| 
|-3-3-3-3-3-3-3-3-0-----------3-3-3-3-3-3-3-3-0-----------------| 
|Guitar 2 
|---------------------------------------------------------------| 
|---------------------------------------------------------------| 
|---------------------4gb5r4------------------------------------| 
|-3-3-3-3-3-3-3-3-0-----------3-3-3-3-3-3-3-3-0-----------------| 
|-3-3-3-3-3-3-3-3-0-----------3-3-3-3-3-3-3-3-0-----------------| 
|-3-3-3-3-3-3-3-3-0-----------3-3-3-3-3-3-3-3-0-----------------| 
 
 
VERSE 2 
 
 Guitar 1 
|-----------------------------------------------------------------| 
|-----2-----------------------------2-----------------------------| 
|-----2-----------------------------2-----------------------------| 
|-2-2---2-----3--------0----0-----2---2-----3-----2/4-4---4-----0-| 
|-0---------3---3----0----0---0-0---------3---3---------0---3-3---| 
|---------3-------0---------------------3-------0-----------------| 
|Guitar 2 
|-----------------------------------------------------------------| 
|-----------------------------------------------------------------| 
|-----------------------------------2-----------------------------| 
|-2-------3---------------------2-2---2-----3-----2/4-4-4-4-----0-| 
|-0-------3---------------------0---------3---3-------------3-3---| 
|----------------(0)--------------------3-------0-----------------| 
 
 
 Guitar 1 
|-----------------------------------------------------------------| 
|-----2----------------------------(2)----------------------------| 
|-----2-----------------------------2-----------------------------| 
|---2---2-----3--------0----0-----2---2-----3-----2/4-4-4-4-----0-| 
|-0---------3---3----0----0---0-0---------3---3-------------3-3---| 
|---------3-------0---------------------3-------0-----------------| 
|Guitar 2 
|-----------------------------------------------------------------| 
|-----2-----------------------------------------------------------| 
|-----2-----------------------------2-----------------------------| 
|-------------3-------------------2-2-2-----3-----2/4-4-4-4-----0-| 
|-0---------3---3---------------0---------3---3-------------3-3---| 
|---------3-------0---------------------3-------0-----------------| 
 
 
 Guitar 1 
|-----------------------------------------------------------------| 
|-----2-----------------------------2-----------------------------| 
|-----2-----------------------------2---------------------------0-| 
|---2---2-----3--------0----0-----2---2-----3-----2/4-4---4-----0-| 
|-0---------3---3----0----0-0---0---------3---3---------0---3-3---| 
|---------3-------0---------------------3-------0-----------------| 
|Guitar 2 
|-----------------------------------------------------------------| 
|-----2-----------------------------------------------------------| 
|-----2-----------------------------2-----------------------------| 
|---2---2-----3-----------------2-2-2-2-----3-----2/4-4---4-----0-| 
|-0---------3---3---------------0---------3---3---------0---3-3---| 
|---------3-------0---------------------3-------0-----------------| 
 
 
 Guitar 1 
|-----------------------------------------------------------------| 
|-----------------------------0-----2-----------------------------| 
|-----2-----------------------0-----2-----------------------------| 
|---2---2-----3--------0----0-----2---2-----3-----2/4-4-4-4-------| 
|-0---------3---3----0----0-----0---------3---3-------------3-3-0-| 
|---------3-------0---------------------3-------0-----------------| 
|Guitar 2          ^enter distortion 
|-----------------------------------------------------------------| 
|-----2-----------------------------0-----------------------------| 
|-----2-----------------------------2-----------------------------| 
|---2---2-----3-------------------2---2-----3-----2/4-4-4-4-------| 
|-0---------3---3---------------0---------3---3-------------3-3-0-| 
|---------3-------0---------------------3-------0-----------------| 
^enter distortion 
 
 
Chorus 2 
 
 Guitar 1     x3 
|---------------------------------------------------------------------| 
|---------------------------------------------------------------------| 
|-2-2-4b5-----4b5---------------4b5-2-2-4b5-----4b5---------------4b5-| 
|-2-2-----3-3-----0-2/4-4---4-------2-2-----3-3-----0-2/4-4---4-------| 
|-0-0-----3-3-----0-------0---3-----0-0-----3-3-----0-------0---3-----| 
|---------3-3-----0-------------------------3-3-----0-----------------| 
|Guitar 2                                                           x3 
|---------------------------------------------------------------------| 
|---------------------------------------------------------------------| 
|-2-2-4b5-----4b5---------------4b5-2-2-4b5-----4b5---------------4b5-| 
|-2-2-----3-3-----0-2/4-4-4-4-------2-2-----3-3-----0-2/4-4-4-4-------| 
|-0-0-----3-3-----0-----------3-----0-0-----3-3-----0-----------3-----| 
|---------3-3-----0-------------------------3-3-----0-----------------|  
 
 
 Guitar 1 
|---------------------------------------------------------------| 
|---------------------------------------------------------------| 
|---------------------4gb5r4------------------------------------| 
|-3-3-3-3-3-3-3-3-0-----------3-3-3-3-3-3-3-3-0-2/4-4-4-4-------| 
|-3-3-3-3-3-3-3-3-0-----------3-3-3-3-3-3-3-3-0-----------3-3---| 
|-3-3-3-3-3-3-3-3-0-----------3-3-3-3-3-3-3-3-0-----------------| 
|Guitar 2 
|---------------------------------------------------------------| 
|---------------------------------------------------------------| 
|---------------------4gb5r4------------------------------------| 
|-3-3-3-3-3-3-3-3-0-----------3-3-3-3-3-3-3-3-0-2/4-4-4-4-4-4-0-| 
|-3-3-3-3-3-3-3-3-0-----------3-3-3-3-3-3-3-3-0-0---0-0-0-3-3-0-| 
|-3-3-3-3-3-3-3-3-0-----------3-3-3-3-3-3-3-3-0-----------------| 
 
 
SOLO - Guitar 1 only 
|----------------------------------------------------------------------| 
|---8b10r8p6----6b8r6----5b6r5-3--------8b10r8----6b8r6----5b6r5-3-----| 
|---------------------3----------5p4--------------------3----------5p4-| 
|-7----------5--------3---------------7--------5--------3--------------| 
|----------------------------------------------------------------------| 
|----------------------------------------------------------------------| 
 
|---------------------------------| 
|---------------------------------| 
|-----------------2---------------| 
|-2---------------2---------------| 
|-0---------------0---------------| 
|---------------------------------| 
 
 
VERSE 3 
 
 Guitar 1 
|-----------------------------------------------------------------| 
|-----2-----------------------------------------------------------| 
|-----2-----------------------0-----2---------------------------0-| 
|---2---2-----3--------0----0-----2-2-2-----3-----2/4-4---4-----0-| 
|-0---------3---3----0----0-----0---------3---3---------0---3-3---| 
|---------3-------0---------------------3-------0-----------------| 
|Guitar 2 
|-----------------------------------------------------------------| 
|-----------------------------------------------------------------| 
|-----------------------------------2---------------------------0-| 
|---------------------------------2---2-----3-----------4-------0-| 
|-0-----------------------------0---------3---3-------------3-3---| 
|---------3-------0---------------------3-------0-----------------| 
 
 
 Guitar 1 
|-----------------------------------------------------------------| 
|-----------------------------------------------------------------| 
|-----2-----------------------2-----2---------------------------0-| 
|---2-2-2-----3--------0----0-0-2---2-------3-----2/4-4---4-----0-| 
|-0---------3---3----0----0---------------3---3---------0---3-3---| 
|---------3-------0---------------------3-------0-----------------| 
|Guitar 2 
|-----------------------------------------------------------------| 
|-----------------------------------------------------------------| 
|-----------------------------------2-----------------------------| 
|-------------------------------2---2-2-----3-----2/4-4---4-----0-| 
|-0---------------------------------------3---3---------0---3-3---| 
|---------3-------0---------------------3-------0-----------------| 
 
 
 Guitar 1 
|-----------------------------------------------------------------| 
|-----2-----------------------0-----------------------------------| 
|-----2-----------------------2-----2---------------------------0-| 
|---2---2-----3--------0----0-----2-2-2-----3-----2/4-4---4-----0-| 
|-0---------3---3----0----0-----0---------3---3---------0---3-3---| 
|---------3-------0---------------------3-------0-----------------| 
|Guitar 2 
|-----------------------------------------------------------------| 
|-----------------------------------------------------------------| 
|-----2-----------------------------2-----------------------------| 
|---2---2-----3-----------------2-2-2-2-----3-----2/4-4---4-----0-| 
|-0---------3---3---------------0---------3---3---------0---3-3-0-| 
|---------3-------0---------------------3-------0-----------------| 
 
 
 Guitar 1 
|-----------------------------------------------------------------| 
|-----2-----------------------------------------------------------| 
|-----2-----------------------0-----2-----------------------------| 
|---2---2-----3--------0----0-0---2---2-----3-----2/4-4---4-------| 
|-0---------3---3----0----0-----0---------3---3---------0---3-3-0-| 
|---------3-------0---------------------3-------0-----------------| 
|Guitar 2                                       ^enter distortion 
|-----------------------------------------------------------------| 
|-----------------------------------------------------------------| 
|-----2-----------------------------2-----------------------------| 
|---2---2-----3-----------------2-2-2-2-----3-----2/4-4-4-4-------| 
|-0---------3---3---------------0---------3---3-------------3-3-0-| 
|---------3-------0---------------------3-------0-----------------| 
                                                ^enter distortion 
 
 
Chorus 3 
 
 Guitar 1                                                           x3 
|---------------------------------------------------------------------| 
|---------------------------------------------------------------------| 
|-2-2-4b5-----4b5---------------4b5-2-2-4b5-----4b5---------------4b5-| 
|-2-2-----3-3-----0-2/4-4---4-------2-2-----3-3-----0-2/4-4---4-------| 
|-0-0-----3-3-----0-------0---3-----0-0-----3-3-----0-------0---3-----| 
|---------3-3-----0-------------------------3-3-----0-----------------| 
|Guitar 2             x3 
|---------------------------------------------------------------------| 
|---------------------------------------------------------------------| 
|-2-2-4b5-----4b5---------------4b5-2-2-4b5-----4b5---------------4b5-| 
|-2-2-----3-3-----0-2/4-4-4-4-------2-2-----3-3-----0-2/4-4-4-4-------| 
|-0-0-----3-3-----0-----------3-----0-0-----3-3-----0-----------3-----| 
|---------3-3-----0-------------------------3-3-----0-----------------| 
 
 
 Guitar 1          x4       x3 
|--------------------|--------| 
|--------------------|--------| 
|--------------------|-4gb5r4-| 
|-3-3-3-3-3-3-3-3-0--|--------| 
|-3-3-3-3-3-3-3-3-0--|--------| 
|-3-3-3-3-3-3-3-3-0--|--------| 
|Guitar 2          x4       x3 
|--------------------|--------| 
|--------------------|--------| 
|--------------------|-4gb5r4-| 
|-3-3-3-3-3-3-3-3-0--|--------| 
|-3-3-3-3-3-3-3-3-0--|--------| 
|-3-3-3-3-3-3-3-3-0--|--------| 
 
End on 
 Guitar 1 
|---------------------------| 
|---------------------------| 
|---------------------------| 
|-4-4-4-4-------------------| 
|---------------------------| 
|---------------------------| 
|Guitar 2 
|---------------------------| 
|---------------------------| 
|---------------------------| 
|-4-4-4-4-------------------| 
|---------3-3---------------| 
|-------------------------X-|  

	  

Search Paypal
auto scroll beats size up size down change color hide chords drawings
tab show chords e-chords YouTube Clip e-chords hide all tabs e-chords go to top tab