Nirvana

home > Nirvana

Heart Shaped Box (Intro) Tab

Nirvana

Difficulty: BeginnerBeginner

by guitarsolo187

tuner correct add songbook print version text version save to e-mail
chordsukulelecavacokeyboardtabbassdrumsharmonicsflute Guitar Pro
chords

Heart Shaped Box (Intro)

	  E:----------------------------------------------------- 
B:----------------------------------------------------- 
G:----------------------------------------------------- 
D:------9---------5-------2-2---2---2------------------ 
A:----9---------5-------------2---2---2---------------- 
E:--7-----7---3-----3---0------------------------------ 


E:----------------------------------------------------- 
B:----------------------------------------------------- 
G:----------------------------------------------------- 
D:------9---------5-------2-2-2-2-0-0------------------ 
A:----9---------5-------------------------------------- 
E:--7-----7---3-----3---0------------------------------ 

	  

there isn't a video lesson for this song

request
Search
auto scroll beats size up size down change color hide chords drawings
tab show chords e-chords YouTube Clip e-chords hide all tabs e-chords go to top tab