Nirvana

home > Nirvana

Come as you are(correct ver.) Tab

Nirvana

Difficulty: BeginnerBeginner

by steelersfan123

tuner correct add songbook print version text version save to e-mail
chordsukulelecavacokeyboardtabbassdrumsharmonicsflute Guitar Pro
chords

Come as you are(correct ver.)

  		Standard tuning tuned down one whole step (D G C F A D) 
 
 
Let everything ring troughout the song. 
 
MAIN RIFF:(3 first notes aren't included in MAIN RIFF) 
 
        (F#m)		(E) 
------II---------------I----------------II 
------II---------------I----------------II 
------II---------------I----------------II 
------II---------------I----------------II 
------II---0---0-------I---2------2-----II 
0-0-1-II2----2---2-2-1-I-0---0-0----0-1-II 
 
 
 
(The last time on verse, right before Pre-Chorus:) 
 
(F#m)		(E)    E 
---------------I-------0--0------I 
---------------I-------0--0------I 
---------------I--------------0--I 
---------------I-------2--2---0--I 
---0---0-------I---2---2--2---0--I 
2----2---2-2-1-I-0---0-0--0-0-0--I 
 
PRE-Chorus 
 
F#5         A 
---0-------I-----------------I 
---0-------I---2---2---2-2---I 
---------0-I-2-2-2-2-2-2-2-0-I 
4--4---4-0-I-2-2-2-2-2-2-2-0-I 
4--4---4-0-I-0---0---0---0-0-I 
2--2-------I-----------------I 
 
first pre-Chorus, last time: 
 
F#5	    A	 
---0-------I-----------------I 
---0-------I---2---2-2-------I 
---------0-I-2-2-2-2-2-------I 
4--4---4-0-I-2-2-2-2-2-------I 
4--4---4-0-I-0---0---0-------I 
2--2-------I-----------0-0-1-I 
 
 
 
Chorus 
 
B		 D 
------7---------I-----------------I 
------7---------I-7-7-7-7-7-7-7-7-I 
8-8-8-8-8-8-8-8-I-7-7-7-7-7-7-7-7-I 
9-9-9-9-9-9-9-9-I-7-7-7-7-7-7-7-7-I 
9-9-9-9-9-9-9-9-I-5-5-5-5-5-5-5-5-I 
7-7-7-7-7-7-7-7-I-----------------I 
 
SOLO 
--------------I--------------I----------------I-------------I 
--------------I--------------I-----------12---I--12---------I 
6--/9--/11---\I6--/9--/11---\I6--/9--/11-11b13I-r11-\-9--\6-I 
--------------I--------------I----------------I-------------I 
--------------I--------------I----------------I-------------I 
--------------I--------------I----------------I-------------I 
 
 
 
The ending chord: 
F#7sus4 
0 
0 
- 
4 
4 
2 

	  

Full key step upFull key step up
Half key step upHalf key step up
Half key step downHalf key step down
Full key step downFull key step down
Search Paypal
auto scroll beats size up size down change color hide chords drawings
tab show chords e-chords YouTube Clip e-chords hide all tabs e-chords go to top tab