Nightwish

Bless the child

Nightwish

tabs Expert expert

save to print version add songbook text version e-mail correct tuner
chordsukulelecavacokeyboardtabbassdrumsharmonicaflute Guitar Pro
close

there isn't a video lesson for this song

chords

Bless the child

	  		 
Dropped-E tuning : EADGBe 
 
0:32                
e:-----------------------------------------------------------------------------| 
B:-----------------------------------------------------------------------------| 
G:-----------------------------------------------------------------------------| 
D:-2-2-----2-2---------7---------------7---------------------------------------| 
A:-2-2-----2-2-----5-5-5---5-5-5---5-5-5---5-5-5-------------------------------| 
E:-0-0-----0-0-----5-5-5---5-5-5---5-5-5---5-5-5-------------------------------| 
                   . .     . . .   . .     . . . 
 
1:07 Listen to the song to get the rythm 
e:-----------------------------------------------------------------------------| 
B:-----------------------------------------------------------------------------| 
G:-----------------------------------------------------------------------------| 
D:-----------------------------------------------------------------------------| 
A:-2-2-2-2-2--2-2--------5-5-5-5-5-5-5-5-5-------------------------------------| 
E:-0-0-0-0-0--0-0--------5-5-5-5-5-5-5-5-5-------------------------------------| 
   . . . . .  . .        . . . . . . . . . 
 
1:38 Verse 
e:-----------------------------------------------------------------------------| 
B:-----------------------------------------------------------------------------| 
G:---------5--------------------------------------2-----------5----------------| 
D:-7---3---5------------------------------3---5---2---2-2-2-3-5----------------| 
A:-5---3---3---8-7-5-5-5-5--8-7-5-5-5-5---3---5---0---0-0-0-3-3----------------| 
E:-5---1-------8-7-5-5-5-5--8-7-5-5-5-5---1---3-------------1------------------| 
               . . . . . .  . . . . . .               . . .  
 
1:54 Chorus 
e:-----------------------------------------------------------------------------| 
B:-----------------------------------------------------------------------------| 
G:-----2-------5-------------2-------------------------------------------------| 
D:-7---2---3---5-5---7---5---2-------------------------------------------------| 
A:-5---0---3---3-5---5---5---0------8-7----------------------------------------| 
E:-5-------1-----3---5---3----------8-7----------------------------------------| 
                                    . . 
2:10 
e:-----------------------| 
B:-----------------------| 
G:-----------------------| 
D:-----------------------| 
A:-5-5-5-5-5-5-5-5-5-5---| 
E:-5-5-5-5-5-5-5-5-5-5---| 
   . . . . . . . . . . 
 
2:26 Verse 
e:-----------------------------------------------------------------------------| 
B:-----------------------------------------------------------------------------| 
G:---------5---------------2--------------2-----------2-----------5------------| 
D:-5---3---5-------0-0-0-0-0------0-0-0-0-0---3---5---2---2-2-2-3-5------------| 
A:-5---3---3---3-2-0-0-0-0----3-2-0-0-0-0-----3---5---0---0-0-0-3-3------------| 
E:-5---1-------1-0------------1-0-------------1---3-------------1--------------| 
               . . . . . .    . . . . . .                 . . .  
 
2:41 Chorus 
e:-----------------------------------------------------------------------------| 
B:-----------------------------------------------------------------------------| 
G:-----2-------5-------------2---------2-------5-------------2-----------------| 
D:-7---2---3---5-5---7---5---2-----7---2---3---5-5---3---5---2-----------------| 
A:-5---0---3---3-5---5---5---0-----5---0---3---3-5---3---5---0-----------------| 
E:-5-------1-----3---5---3---------5-------1-----3---1---3---------------------| 
 
3:15 Bridge 
e:------------------| 
B:------------------| 
G:------------------| 
D:----------------5-| 
A:-5-5-5-5-5-5-5--3-| 
E:-5-5-5-5-5-5-5----| 
   . . . . . . . 
 
3:22 Tarja sings 
e:-----------------------------------------------------------------------------| 
B:-----------------------------------------------------------------------------| 
G:----3--5-----------3--5-----------3----5-----------3----5--3-----------------| 
D:-7--3--5--7-----7--3--5--3-----5--3--3-5--7-----5--3--3-5--3--3--------------| 
A:-5--1--3--5-----5--1--3--3-----5--1--3-3--5-----5--1--3-3--1--0--------------| 
E:-5--------5-----5--------1-----3-----1----5-----3-----1----------------------| 
 
3:45 Play always the same chord 
e:--------------------------------------| 
B:--------------------------------------| 
G:--------------------------------------| 
D:--------------------------------------| 
A:-5-5-5-5-5-5-5-5-5-5-5-5-5...----8-7--| 
E:-3-3-3-3-3-3-3-3-3-3-3-3-3...----8-7--| 
   . . . . . . . . . . . . .  
 
4:02 This time the guitar plays with the keys, play this two times 
e:-----------------------------------------------------------------------------| 
B:-----------------------------------------------------------------------------| 
G:-----------------------------------------------------------------------------| 
D:-----------------------------------------------------------------------------| 
A:-5-5-5-5-5-5-5-5-8-7---5-5-5-5-5-5-5-5-8-7-----------------------------------| 
E:-5-5-5-5-5-5-5-5-8-7---5-5-5-5-3-3-3-3-8-7-----------------------------------| 
   . . . . . . . . . .   . . . . . . . . . . 
 
4:15 
e:-----------------------------------------------------------------------------| 
B:-----------------------------------------------------------------------------| 
G:-----------------------------------------------------------------------------| 
D:-2-----2-----2-----2-----2---------------------------------------------------| 
A:-0-0-0-0-0-0-0-0-0-0-0-0-0-8-7-5---------------------------------------------| 
E:---------------------------8-7-5---------------------------------------------| 
   . . . . . . . . . . . . . 
 
4:45 
e:-----------------------------------------------------------------------------| 
B:-----------------------------------------------------------------------------| 
G:-------2-2-2-2-2-2-----------------------------------------------------------| 
D:-2-2-2-2-2-2-2-2-2-----------------------------------------------------------| 
A:-0-0-0-0-0-0-0-0-0-8-7-------------------------------------------------------| 
E:-------------------8-7-------------------------------------------------------| 
   . . . . . .    
 
4:50 Chorus 
e:-----------------------------------------------------------------------------| 
B:-----------------------------------------------------------------------------| 
G:----------------------------------------------------------5------------------| 
D:-7-----7-----7------2-----2-----2-------------------------5---5--------------| 
A:-5-5-5-5-5-5-5-5-5--0-0-0-0-0-0-0-0-0--3-----3-----3------3---5--------------| 
D:-5-5-5-5-5-5-5-5-5---------------------1-1-1-1-1-1-1-1-1------3--------------| 
   . . . . . . . . .  . . . . . . . . .  . . . . . . . . . 
 
e:-----------------------------------------------------------------------------| 
B:-----------------------------------------------------------------------------| 
G:-----------------------------------------------------------------------------| 
D:-----------------------------------------------------------------------------| 
A:-3-----3-----3------5-----5-----5--------------------------------------------| 
D:-1-1-1-1-1-1-1-1-1--3-3-3-3-3-3-3-3-3----------------------------------------| 
   . . . . . . . . .  . . . . . . . . . 
 
5:02 Fill in after chorus 
e:-----------------------------------------------------------------------------| 
B:-----------------------------------------------------------------------------| 
G:-----------------------------------------------------------------------------| 
D:-----------------2-----------------3---2-------------------------------------| 
A:-0-0-2-0-3-0-5-0---0-5-0-3-0-2-0-0---0---0-3-0--3-2--------------------------| 
D:------------------------------------------------1-0--------------------------| 
   . . . . . . . . . . . . . . . . . . . . . . . 
 
5:06 Play this two times 
e:-----------------------------------------------------------------------------| 
B:-----------------------------------------------------------------------------| 
G:-----------------------------------------------------------------------------| 
D:-----------------------------------------------------------------------------| 
A:-7h8-5-5-5-5-5-5--7h8-5-5-5-5-5-5--7h8-5-5-5-5-5-5--7h8-5-5-5-5-5-5--6-6-----| 
D:-7h8-5-5-5-5-5-5--7h8-5-5-5-5-5-5--7h8-5-5-5-5-5-5--7h8-5-5-5-5-5-5--4-4-----| 
   . . . . . . . .  . . . . . . . .  . . . . . . . .  . . . . . . . .  
 
 
 
_______________________________________________________ 
Contribuição: Tiago Dos Santos([email protected]) 

		  

See also:

tabs Stratovarius - Holy Solos tabs Nightwish - The Carpenter tabs Nightwish - Ever dream tabs Nightwish - Whish I had an Angel tabs Stratovarius - Hunting High And Low tabs HIM - Right Here In My Arms
e-chords

Other versions:

tabs Nightwish - Bless the child
auto scroll beats size up size down change color hide chords drawings
tab show chords e-chords YouTube Clip e-chords hide all tabs e-chords go to top tab

share