Nico Vega

Beast

Nico Vega

tabs Beginner beginner

by  ADALGOMES

save to print version add songbook text version e-mail correct tuner
chordsukulelecavacokeyboardtabbassdrumsharmonicaflute Guitar Pro
close

there isn't a video lesson for this song

chords

Beast

	  		Main riff: 

E|--------------------------------------------------------------------------| 
B|--------------------------------------------------------------------------| 
G|-2---7-7--5-7--7p5-7p5-------------7-7--5-7-7p5----2~(p0)-----------------| 
D|-2-----------------------7~-----------------------------------------------| 
A|-0---------------------------0--------------------------------------------| 
E|--------------------------------------------------------------------------| 

E|--------------------------------------------------------------------------| 
B|--------------------------------------------------------------------------| 
G|-2---7-7---5-7--7p5-7p5-----------5-----------5---------------------------| 
D|-2------------------------7---5-7-----7---5-7---7~------------------------| 
A|-0------------------------------------------------------------------------| 
E|--------------------------------------------------------------------------| 

Bridge: 

E|-------------------------------------------------| 
B|-------------------------------------------------| 
G|-------------------------------------------------| 
D|-7-----------------5-------------------7---------| 
A|-7-7p5-7p5-7p5--3--5---7p5-7p5-7p5--3--7---------| 
E|-5-----------------3-------------------5---------| 
		  

See also:

tabs Incubus - Pardon Me tabs Red Hot Chili Peppers - All Around The World tabs Red Hot Chili Peppers - Venice Queen tabs Eye of the tiger - Eye of the tiger tabs Good Charlotte - Hold On tabs Boyce Avenue - Here Without You
e-chords

Other versions:

tabs Bride - Beast tabs Nico Vega - Beast tabs Avenged Sevenfold - Beast And The Harlot tabs Avenged Sevenfold - Beast And The Harlot Intro And Verse tabs Avenged Sevenfold - Beast and The Harlot-Intro tabs Arsonists Get All The Girls - Beast Fist
auto scroll beats size up size down change color hide chords drawings
tab show chords e-chords YouTube Clip e-chords hide all tabs e-chords go to top tab

share