Nickel Creek

The Hand Song

Nickel Creek

tabs Beginner beginner

save to print version add songbook text version e-mail correct tuner
chordsukulelecavacokeyboardtabbassdrumsharmonicaflute Guitar Pro
close

there isn't a video lesson for this song

chords

The Hand Song

	  		
By axehappy - [email protected] 
 
*********************************************************************** 
 
 
PICKING STYLE IN INTRO & CHORUS 
 
 
 
E--4-2-----2--------------4-2--7--11-9-------------- 
B-----2---------7-6--6-7-----2-----------7-7---6-7-- 
G------4----4---8-6-6--------------------8-8--6----- 
D--4------4----8----------4------9------8----------- 
A--------2----6----4-------------------6-----4------ 
E-------------------------------7------------------- 
 
 
E--4-2-----2---------------4-2--7--11-9----------| 
B-----2---------7-7---6-7-----2-----------7-6----| 
G------4----4---8-8--6--------------------8-6----| 
D--4------4----8-----------4------9------8-------| 
A--------2----6-----4-------------------6----4---| 
E--------------------------------7---------------| 
 
 
 
PICKING STYLE IN VERSE 
 
 
E---------------------2----4---4----4---4------4----4-----2---2-- 
B---4-3---3-4-----4-------7---7-----4---4----3-3--3-3------------ 
G------3-3---4---4---4---6---6-----6---6----3----3-------4---4--- 
D---------------4---4---4---4-----6---6-----------------4---4---- 
A--1----1------2---2-------------4---4-----1----1------2---2----- 
E---------------------------------------------------------------- 
   
 
E-----4---4----4---4-----4----4---------4-----4----4-------------| 
B----7---7-----4---4-----4---7-----7----4-----4---7-----7---6-7--| 
G---6---6-----6---6---------------8----6---------------8---6-----| 
D--4---4-----6---6------6---0----8----6------6---0----8----------| 
A-----------4---4------6--------6----4------6--------6----4------| 
E---------------------4----6---------------4----6----------------| 
		  

See also:

tabs Kenny Chesney - I Go Back tabs Albert Lee - Country Boy tabs James Taylor - Youve Got A Friend (ver. 2) tabs Crosby, Stills, Nash & Young - Suite Judy Blue Eyes tabs Yonder Mountain String Band - Hold What You've Got tabs George Strait - Carrying Your Love With Me
e-chords

Other versions:

tabs Nickel Creek - The Hand Song
auto scroll beats size up size down change color hide chords drawings
tab show chords e-chords YouTube Clip e-chords hide all tabs e-chords go to top tab

share