Nickel Creek

Sweet Afton

Nickel Creek

tabs

save to print version add songbook text version e-mail correct tuner
chordsukulelecavacokeyboardtabbassdrumsharmonicaflute Guitar Pro
close

there isn't a video lesson for this song

chords

Sweet Afton

	  		This is the intro part to the song and also the part that is played in between verses.  These are the main notes for these parts? there are also some little ones in there you may want to fool around with to try to get.  I think its right, but this is the first tab I?ve ever done so if it?s not I apologize. 
Let me know what you think at [email protected] 
 
Intro: Part1, Part2 
 
Verse one finishes, then play: Part2 
 
After the Chorus(?my Mary?s sweet cot in my eye.) play: Part2, Part3 
 
After second Chorus (?She stems thy clear wave.) play: Part4 
 
After the last verse play: Part2 
 
 
 
 
Part1: 
e|----12--12--12--12--12--11--7--2--4--5--7--9--7--7---| 
B|-----------------------------------------------------| 
G|-----------------------------------------------------| 
D|-----------------------------------------------------| 
A|-----------------------------------------------------| 
E|-----------------------------------------------------| 
 
e|--0--2--4--5--4--2--0--------0--2--0--0--------------| 
B|-----------------------0--2--------------------------| 
G|-----------------------------------------------------| 
D|-----------------------------------------------------| 
A|-----------------------------------------------------| 
E|-----------------------------------------------------| 
 
 
 
Part2: 
e|--9--11--12--12--12--12--11--7--2--4--5--7--9--7-----| 
B|-----------------------------------------------------| 
G|-----------------------------------------------------| 
D|-----------------------------------------------------| 
A|-----------------------------------------------------| 
E|-----------------------------------------------------| 
 
e|--0--2--4--5--4--2--0--------0--2--0-----------------| 
B|-----------------------0--2--------------------------| 
G|-----------------------------------------------------| 
D|-----------------------------------------------------| 
A|-----------------------------------------------------| 
E|-----------------------------------------------------| 
 
 
 
Part3: 
e|--9--11--12--12--12--14--7--7--17--16--12--7--4----| 
B|---------------------------------------------------| 
G|---------------------------------------------------| 
D|---------------------------------------------------| 
A|---------------------------------------------------| 
E|---------------------------------------------------| 
 
e|--0--2--4--5--4--2--0--------0--2--0----| 
B|-----------------------0--2-------------| 
G|----------------------------------------| 
D|----------------------------------------| 
A|----------------------------------------| 
E|----------------------------------------| 
 
 
 
Part4: 
e|--9--11--12--12--12--12--11--7--2--4--5--7--9--7--7--| 
B|-----------------------------------------------------| 
G|-----------------------------------------------------| 
D|-----------------------------------------------------| 
A|-----------------------------------------------------| 
E|-----------------------------------------------------| 
 
e|--0--2--4--5--4--2--0--------0--2--0-----------------| 
B|-----------------------0--2--------------------------| 
G|-----------------------------------------------------| 
D|-----------------------------------------------------| 
A|-----------------------------------------------------| 
E|-----------------------------------------------------| 
		  

See also:

tabs Simpsons - The simpsons tabs Kenny Chesney - I Go Back tabs Alan Jackson - Chattahoochee Correct tabs Lonestar - Amazed tabs Alison Krauss - You Say Nothing At All tabs James Taylor - Youve Got A Friend (ver. 2)
e-chords

Other versions:

tabs Nickel Creek - Sweet Afton
auto scroll beats size up size down change color hide chords drawings
tab show chords e-chords YouTube Clip e-chords hide all tabs e-chords go to top tab

share