Nickel Creek

7 Wonders

Nickel Creek

tabs

save to print version add songbook text version e-mail correct tuner
chordsukulelecavacokeyboardtabbassdrumsharmonicaflute Guitar Pro
close

there isn't a video lesson for this song

chords

7 Wonders

	  		*************** 
 
VERSE 1 
G |---------------0--------------------0------------------- 
D |-----------0-------------0-------0-------------0-------- 
Bb|-------2--------------2-------2-------------2----------- 
F |---4---------------4---------------------4-------------- 
C |-------------------------------------------------------- 
G |-------------------------------------------------------- 
 
  |---------------0--------------------------0------------- 
  -----------0-------------0------------0-------------0--- 
  |-------2--------------2-----------2--------------2------ 
  |---2---------------2------------------------------------ 
  |------------------------------2---------------2--------- 
  |-------------------------------------------------------- 
 
(1st ending) 
  |---------------0-----------0-------0--0----------------- 
  |-----------0---------------0-------0--0----------------- 
  |-------2---------------2-----------2--2------1h2-------- 
  |---0---------------0------------------------------------ 
  |-------------------------------0------------------------ 
  |------------------------------------------4------------- 
 
 
  |---------------0---------------------------------------- 
  |-----------0-----------------0-------------------------- 
  |-------2-----------------2------------------------------ 
  |---------------------4---------------------------------- 
  |-------------------------------------------------------- 
  |---2---------------------------------------------------- 
   
(2nd ending into chorus) 
 
  |---------------0-----------0-------0--0------0--0------- 
  |-----------0---------------0-------0--0------0--0------- 
  |-------2---------------2-----------2--2------2--2------- 
  |---0---------------0------------------------------------ 
  |-------------------------------0------------------------ 
  |------------------------------------------0------------- 
 
CHORUS  
G |-----------0--------0-----------0-----------0----------- 
D |-----------0--0--0--0-----------0-----------0----------- 
Bb|-------2---------2----------2-----------2--------------- 
F |---0---------------------------------------------------- 
C |------------------------0------------------------------- 
G |------------------------------------0------------------- 
 
  |-----------0--------0-----------0-----------0----------- 
  |-----------0--0--0--0-----------0-----------0----------- 
  |-------2---------2----------2-----------2--------------- 
  |---0---------------------------------------------------- 
  |------------------------0------------------------------- 
  |------------------------------------0------------------- 
 
  |------------0-----------0-----------0------------0------ 
  |-----------(0)---------(0)---------(0)----------(0)----- 
  |--------4-----------4-----------4------------4---------- 
  |--------4-----------4-----------4------------4---------- 
  |---2------------------------0--------------------------- 
  |----------------4------------------------2-------------- 
 
  |-----------------0-------------------------------------- 
  |--------------------4----------------------------------- 
  |----------4------------4-------------------------------- 
  |-------4------------------------------------------------ 
  |---2---------------------------------------------------- 
  |-------------------------------------------------------- 
*listen to the song for a more accurate strum 
 
VERSE 2 
G |---0--------0--------------------0---------------------- 
D |---0------------------0-------0-------------0----------- 
Bb|---2---------------2-------2-------------2-------------- 
F |---4-----4------4---------------------4----------------- 
C |-------------------------------------------------------- 
G |-------------------------------------------------------- 
 
  |---------------0--------------------------0------------- 
  |-----------0-------------0------------0-------------0--- 
  |-------2--------------2-----------2--------------2------ 
  |---2---------------2------------------------------------ 
  |------------------------------2---------------2--------- 
  |-------------------------------------------------------- 
 
  |---------------0-----------0-------0--0----------------- 
  |-----------0---------------0-------0--0----------------- 
  |-------2---------------2-----------2--2------1h2-------- 
  |---0---------------0------------------------------------ 
  |-------------------------------0------------------------ 
  |------------------------------------------4----------- 
 
 
  |---------------0--------------------------0----------0-- 
  |-----------0-----------------0--------0---0----------0-- 
  |-------2-----------------2--------2---------------2----- 
  |---------------------4-------------------------4-------- 
  |-------------------------------------------------------- 
  |---2---------------------------------------------------- 
 
  |---------------0---------0----------0----------0------- 
  |-----------0---0---------0-------0--0----------0-------- 
  |-------2--------------2-------2-------------2----------- 
  |---4---------------4---------------------4-------------- 
  |-------------------------------------------------------- 
  |-------------------------------------------------------- 
 
  |---------------0---------0----------------0---------0--- 
  |-----------0---0---------0------------0---0---------0--- 
  |-------2--------------2-----------2--------------2------ 
  |---2---------------2------------------------------------ 
  |------------------------------2---------------2--------- 
  |--------------------------------------------------------  
 
  |---------------0-----------0-------0--0------0--0------- 
  |-----------0---0-----------0-------0--0------0--0------- 
  |-------2---------------2-----------2--2------2--2------- 
  |---0---------------0------------------------------------ 
  |-------------------------------0------------------------ 
  |------------------------------------------0------------- 
 
REPEAT CHORUS 
 
BRIDGE 
G |------------0------------------------------0------------ 
D |------------------------0-------------0----------0------ 
Bb|--------------------2--------------2----------2--------- 
F |-------(2)------4---------------4----------------------- 
C |-------------------------------------------------------- 
G |---0------------------------2--------------------------- 
  |---------------0------------------0-----------------0--- 
  |------------3-----3------------3----3------------1----1- 
  |---------0------------------0-----------------4--------- 
  |------2------------------4-----------------2------------ 
  |---3------------------2-----------------0--------------- 
  |-------------------------------------------------------- 
 
  |---------------0------------------0------2-------------- 
  |------------3-----3------------3-----3---3------------- 
  |---------0------------------0------------0-------------- 
  |------4------------------2------------------------------ 
  |---2------------------3--------------------------------- 
  |-------------------------------------------------------- 
 
Play Verse1 w/ 2nd ending 
Repeat Chorus  
 
Tag with last half of Chorus 
                                              *important change 
G |------------0-----------0-----------0-------(0)--------- 
D |-----------(0)---------(0)---------(0)------(0)--------- 
Bb|--------4-----------4-----------4------------4---------- 
F |--------4-----------4-----------4------------4---------- 
C |---2------------------------0--------------------------- 
G |----------------4------------------------2-------------- 
 
  |------------0-----------0-----------0------------0------ 
  |-----------(0)---------(0)---------(0)----------(0)----- 
  |--------4-----------4-----------4------------4---------- 
  |--------4-----------4-----------4------------4---------- 
  |---2------------------------0--------------------------- 
  |----------------4------------------------2-------------- 
 
  |-----------------0-------------------------------------- 
  |--------------------4----------------------------------- 
  |----------4------------4-------------------------------- 
  |-------4------------------------------------------------ 
  |---2---------------------------------------------------- 
  |-------------------------------------------------------- 
 
Solo Break 
G |---------------0--------------------0------------------- 
D |-----------0-------------0-------0-------------0-------- 
Bb|-------2--------------2-------2-------------2----------- 
F |---4---------------4---------------------4-------------- 
C |-------------------------------------------------------- 
G |-------------------------------------------------------- 
(1st ending) 
  |---------------0---------------------------------------- 
  |-----------0-------------0------------------------------  |-------2--------------2--------------2--1--------------- 
  |---2---------------2--------------2--2--2--------------- 
  |------------------------------2------2--2--------------- 
  |--------------------------------------------------------  
(2nd ending) 
  |---------------0--------------------------0------------- 
  |-----------0-------------0------------0----------------- 
  |-------2--------------2-----------2--------------1h2---- 
  |---2---------------2------------------------------------ 
  |------------------------------2---------------2--------- 
  |-------------------------------------------------------- 
(3rd ending) 
  |---------------0--------------------------0------------- 
  |-----------0-------------0------------0-------------0--- 
  |-------2--------------2-----------2--------------2------ 
  |---2---------------2------------------------------------ 
  |------------------------------2---------------2--------- 
  |-------------------------------------------------------- 
(4th ending) 
  |---------------0---------0------------------------------ 
  |-----------0-------------0-----0----(0)(0)(0)----------- 
  |-------2--------------2--------2-----2--1--1h2---------- 
  |---2---------------2---------2-------2--2--2------------ 
  |----------------------------------2--------------------- 
  |-------------------------------------------------------- 
 
Outro 
G |---------------0---------0----------0----------0-------- 
D |-----------0---0---------0----------0----------0-------- 
Bb|-------2--------------2---------2----------2------------ 
F |---4---------------4---------4-----------4-------------- 
C |-------------------------------------------------------- 
G |-------------------------------------------------------- 
 
  |---------------0---------0----------0----------0-------- 
  |-----------0---0---------0-------0--0----------0-------- 
  |-------2--------------2-------2------------2------------ 
  |---2---------------2------------------------------------ 
  |---------------------------2------------2--------------- 
  |-------------------------------------------------------- 
Repeat 6 times ending on 
  |-------------0--------------| 
  |--------------0-------------| 
  |---------------2------------| 
  |----------------4-----------| 
  |---2------------------------| 
  |----------------------------|
		  

See also:

tabs Simpsons - The simpsons tabs Kenny Chesney - I Go Back tabs Alan Jackson - Chattahoochee Correct tabs Lonestar - Amazed tabs Alison Krauss - You Say Nothing At All tabs James Taylor - Youve Got A Friend (ver. 2)
e-chords

Other versions:

tabs Nickel Creek - 7 Wonders
auto scroll beats size up size down change color hide chords drawings
tab show chords e-chords YouTube Clip e-chords hide all tabs e-chords go to top tab

share