Nick Howard

Stay How You Are

Nick Howard

tabs

by  MARCNAGEL

save to print version add songbook text version e-mail correct tuner
chordsukulelecavacokeyboardtabbassdrumsharmonicaflute Guitar Pro
close

there isn't a video lesson for this song

chords

Stay How You Are

	  		

Intro: 

     1   +   2   +   3   +   4   +       1   +   2   +   3   +   4   + 

e|-----------------------------------|-----------------------------------| 
B|-----------------------------------|-------------------0---------------| 
G|-----------0---------------0-------|-----------0-------0-------0-------| 
D|-------0-------0-------0-------0---|-------0-------0---------------0---| 
A|---3---------------2---------------|---0-------------------------------| 
E|-----------------------------------|-------------------3---------------| 

     1   +   2   +   3   +   4   +       1   +   2   +   3   +   4   + 

e|-----------------------------------|-----------------------------------| 
B|-----------------------------------|-----------------------------------| 
G|-----------0---------------0-------|-----------0---------------0-------| 
D|-------0-------0-------0-------0---|-------0-------0---------------0---| 
A|---3---------------2---------------|---0-------------------------------| 
E|-----------------------------------|-------------------3---------------| 

Verse: 

     1   +   2   +   3   +   4   +       1   +   2   +   3   +   4   + 

e|-----------------------------------|-----------------------------------| 
B|-----------------------------------|-------------------0---------------| 
G|-----------0---------------0-------|-----------0-------0-------0-------| 
D|-------0-------0-------0-------0---|-------0-------0---------------0---| 
A|---3---------------2---------------|---0-------------------------------| 
E|-----------------------------------|-------------------3---------------| 

     1   +   2   +   3   +   4   +       1   +   2   +   3   +   4   + 

e|-----------------------------------|-----------------------------------| 
B|-----------------------------------|-----------------------------------| 
G|-----------0---------------0-------|-----------0---------------0-------| 
D|-------0-------0-------0-------0---|-------0-------0---------------0---| 
A|---3---------------2---------------|---0-------------------------------| 
E|-----------------------------------|-------------------3---------------| 


     1   +   2   +   3   +   4   +       1   +   2   +   3   +   4   + 

e|-----------------------------------|-----------------------------------| 
B|-----------------------------------|-------------------0---------------| 
G|-----------0---------------0-------|-----------0-------0-------0-------| 
D|-------0-------0-------0-------0---|-------0-------0---------------0---| 
A|---3---------------2---------------|---0-------------------------------| 
E|-----------------------------------|-------------------3---------------| 

     1   +   2   +   3   +   4   +       1   +   2   +   3   +   4   + 

e|-----------------------------------|-----------------------------------| 
B|-----------------------------------|-----------------------------------| 
G|-----------0---------------0-------|-----------0---------------0-------| 
D|-------0-------0-------0-------0---|-------0-------0---------------0---| 
A|---3---------------2---------------|---0-------------------------------| 
E|-----------------------------------|-------------------3---------------| 


Chorus: 

     1   +   2   +   3   +   4   +       1   +   2   +   3   +   4   + 

e|-----------2-----------3-----------|-----------------------------------| 
B|-----------3-----------3-----------|-----------3-----------3-----------| 
G|-------0-------0-------0-------0---|-----------0-----------0-----------| 
D|-----------------------------------|-------0-------0---------------0---| 
A|------------------3----------------|-----------------------------------| 
E|---0-------------------------------|---3---------------3---------------| 

     1   +   2   +   3   +   4   +       1   +   2   +   3   +   4   + 

e|-----------2-----------3-----------|-----------------------------------| 
B|-----------3-----------3-----------|-----------3-----------3-----------| 
G|-------0-------0-------0-------0---|-----------0-----------0-----------| 
D|-----------------------------------|-------0-------0---------------0---| 
A|------------------3----------------|-----------------------------------| 
E|---0-------------------------------|---3---------------3---------------| 

     1   +   2   +   3   +   4   +       1   +   2   +   3   +   4   + 

e|-----------2-----------3-----------|-----------2-----------3-----------| 
B|-----------3-----------3-----------|-----------3-----------3-----------| 
G|-------0-------0-------0-------0---|-------0-------0-------0-------0---| 
D|-----------------------------------|-----------------------------------| 
A|------------------3----------------|------------------3----------------| 
E|---0-------------------------------|---0-------------------------------| 

     1   +   2   +   3   +   4   +       1   +   2   +   3   +   4   + 

e|-----------------------------------|-----------------------------------| 
B|---------------1-------------------|---------------1-------------------| 
G|-----------0---------------0-------|-----------2-----------------------| 
D|-------2---------------2-------2---|-------0---------------------------| 
A|---0-------------------------------|---3-------------------------------| 
E|-----------------------------------|-----------------------------------| 

     1   +   2   +   3   +   4   +       1   +   2   +   3   +   4   + 

e|-----------2-----------3-----------|-----------------------------------| 
B|-----------3-----------3-----------|-----------3-----------3-----------| 
G|-------0-------0-------0-------0---|-----------0-----------0-----------| 
D|-----------------------------------|-------0-------0---------------0---| 
A|------------------3----------------|-----------------------------------| 
E|---0-------------------------------|---3---------------3---------------| 

     1   +   2   +   3   +   4   +       1   +   2   +   3   +   4   + 

e|-----------2-----------3-----------|-----------------------------------| 
B|-----------3-----------3-----------|-----------3-----------3-----------| 
G|-------0-------0-------0-------0---|-----------0-----------0-----------| 
D|-----------------------------------|-------0-------0---------------0---| 
A|------------------3----------------|-----------------------------------| 
E|---0-------------------------------|---3---------------3---------------|  
		  

See also:

tabs Kenny G - Dying Young tabs James Blunt - Same Mistake tabs David Gray - Sail Away tabs Mcfly - I've Got You tabs Dido - Here With Me tabs Toto - Kingdom Of Desire
e-chords

Other versions:

tabs Nick Howard - Stay How You Are
auto scroll beats size up size down change color hide chords drawings
tab show chords e-chords YouTube Clip e-chords hide all tabs e-chords go to top tab

share