Newsboys

home > Newsboys

Take Me To Your Leader Tab

Newsboys

Difficulty: nolevelnolevel

by JoFaNaN

tuner correct add songbook print version text version save to e-mail
chordsukulelecavacokeyboardtabbassdrumsharmonicsflute Guitar Pro
chords

Take Me To Your Leader

Year: 1996 - Album: Greatest Hits

  		Take Me To Your Leader 
As Recorded by Newsboys 
CD: Take Me To Your Leader 
Music: Peter Furler/Lyrics: Steve Taylor 
©1996 Dawn Treader Music (SESAC) 
Transcribed by Bryan Fakes [email protected] 
 
INTRO (Play two times - Second time play Bar 4 two times) 
    G         C7      G         C7      G         C7      F         G 
e|-----------------|-----------------|-----------------|--------------- 
B|-----------------|-----------------|-----------------|--------------- 
G|------------3--3-|------------3--3-|------------3--3-|------------0-- 
D|------------2--2-|------------2--2-|------------2--2-|------------0—0  
A|---2--2--2--3--3-|---2--2--2--3--3-|---2--2--2--3--3-|---0--0--0--2—2  
E|-/3--3--3--------|--3--3--3--------|--3--3--3--------|--1--1--1---3—3  
 
VERSE ONE (Guitar follows melody with wah wah effect and distortion) 
  Cm                                       Bb         F 
e|----------------------------------------|---------------------------- 
B|-4-4-4----4--4-4--xx--4--------xx---4-4-|-333-----3--------------3--- 
G|----------------------------------------|--------------5--5-5--5--5-- 
D|----------------------------------------|---------------------------- 
A|----------------------------------------|----------------------------E|----------------------------------------|---------------------------- 
 
   Cm                                 Bb                   F   (etc.) 
e|----------------------------------------|---------------------------- 
B|-4-xx-4----xx-4------xx----/6--\4----3--|-xx-3----------------------- 
G|----------------------------------------|------------5--5-------- 
D|----------------------------------------|---------------------------- 
A|----------------------------------------|---------------------------- 
E|----------------------------------------|---------------------------- 
    
 
Chorus: 
G  C  C        
G  C    
C  G 
 
C  C  F   G          
F  G 
 
 
INTERLUDE 
   B                    B            A 
e|-7\-------|---------|-7--7----x----5---xx---5--|-7--7----x----5—xx-5- 
B|-7\-------|---------|-7--7----x----5---xx---5--|-7--7----x----5-xx-5- 
G|-8\-------|---------|-8--8----x----6---xx---6--|-8--8----x----6-xx-6- 
D|-9\-------|---------|-9--9----x----7---xx---7--|-9--9----x----7-xx-7- 
A|-9\-------|---------|-9--9----x----7---xx---7--|-9--9----x----7-xx-7- 
E|-7\-------|---------|-7--7----x----5---xx---5--|-7--7----x----5-xx-5- 
 
  
 
 
 
 
e|-7--7----x----5---xx---5--|-7--7----x----5---xx---5--|-7\------------ 
B|-7--7----x----5---xx---5--|-7--7----x----5---xx---5--|-7\------------ 
G|-8--8----x----6---xx---6--|-8--8----x----6---xx---6--|-8\------------ 
D|-9--9----x----7---xx---7--|-9--9----x----7---xx---7--|-9\------------ 
A|-9--9----x----7---xx---7--|-9--9----x----7---xx---7--|-9\------------ 
A|-7--7----x----5---xx---5--|-7--7----x----5---xx---5--|-7\------------ 
 
 
OUTRO Chorus 
 
A   D   D           
A   D   D             
A   D   D            
G   A   A              
A   D   D   A   D    
D   A 
G   A   A 
G   A   A     
G   A   A 
 
 

	  

Full key step upFull key step up
Half key step upHalf key step up
Half key step downHalf key step down
Full key step downFull key step down
Search Paypal
auto scroll beats size up size down change color hide chords drawings
tab show chords e-chords YouTube Clip e-chords hide all tabs e-chords go to top tab