Newsboys

home > Newsboys

Step Up To The Microphone Bass Tab

Newsboys

Difficulty: nolevelnolevel

by vasodebarro

tuner correct add songbook print version text version save to e-mail
chordsukulelecavacokeyboardtabbassdrumsharmonicsflute Guitar Pro
chords

Step Up To The Microphone Bass

  		(Do not play for first three measures of the intro) 
                                                                  (4x) 
D-----------------|------------------------------------7-------5-----| 
A-----------------|-5h7-------------5h7--------------5---5---3---3---| 
E-3---------------|-----0---------------0----------------------------| 

(Do not play during verse) 

Chorus:                                         (4x) 
D------------------------------------7-------5-----| 
A-5h7-------------5h7--------------5---5---3---3---| 
E-----0---------------0----------------------------| 

A-0-----3---------5-------------0-----3---------5---7---------| 
E-----------------------3---4-------------------------3---4---| 

(Do not play during verse) 
(Repeat Chorus) 
                                  (8x)                              (3x) 
D-----------------------3-----5------|-5---5---4---4---3---3---2---2---|---|---| 
A-------------------5-------5--------|---------------------------------|---|---| 
E-3-3-3-----3-3----------------------|---------------------------------|-0-|-3-| 

(Repeat Chorus twice) 


	  

Search Paypal
auto scroll beats size up size down change color hide chords drawings
tab show chords e-chords YouTube Clip e-chords hide all tabs e-chords go to top tab