Newsboys

home > Newsboys

Shine Tab

Newsboys

Difficulty: ExpertExpert

by JoFaNaN

tuner correct add songbook print version text version save to e-mail
chordsukulelecavacokeyboardtabbassdrumsharmonicsflute Guitar Pro
chords

Shine

Year: 1994 - Album: Greatest Hits

  		Shine 
Newsboys 
 
by Phil Joel     I am sure all of this is right. e-mail me if you want 
any other of their songs tabbed completely right. My e-mail adress is 
[email protected] 
 
 (intro) 
             Guitar 
E-------               
B------- 
G-5----                 (let ring w/ phaser and slight distortion) 
D-X---- 
A-3---- 
E------ 
 
                Keyboard does first part of intro 
 
Guitar comes in with slightly distorted phaser while keyboard is playing 
a similar part 
E---------------------------------------------------------------------------- 
B---------------------------------------------------------------------------- 
G--------------------------------2-3-5--------------------------------------- 
D------------2-3-5---3------3--------3-5---5-5-3-2-3-3---2-3-5--------------- 
A---3-----3---------3-------------------------------------------------3-5-1-- 
E---------------------------------------------------------------------------- 
                            (repeat 1x) 
 
         (Verse 1&2)    They use a slightly heavy dist. but I like to use a 
distorted cry baby which sounds a lot cooler 
 
F       G     Am 
F       G     C  (while the c is being played, a guitar w/ Chorus does this) 
                           E-------0---------0----------0-------0------ 
                           B----1,3-------1--------1,3-------1--------- 
                           G-0----------0--------0---------0----------- 
F       G     Am 
F       G- hold the chord 
 
           (Chorus) guitar w/slightly distorted phaser 
            same as intro 
 

	  

Full key step upFull key step up
Half key step upHalf key step up
Half key step downHalf key step down
Full key step downFull key step down
Search Paypal
auto scroll beats size up size down change color hide chords drawings
tab show chords e-chords YouTube Clip e-chords hide all tabs e-chords go to top tab