Newsboys

home > Newsboys

Live With Abandon Tab

Newsboys

Difficulty: nolevelnolevel

by gustsilva

tuner correct add songbook print version text version save to e-mail
chordsukulelecavacokeyboardtabbassdrumsharmonicsflute Guitar Pro
chords

Live With Abandon

  		

Intro and general riff 
e|----------------------| 
B|----5---6---10---8----| 
G|--0---0---0----0------| 
D|----------------------| 
A|----------------------| 
E|----------------------| 

Chorus (Hold notes out or make your own strum pattern) 
e|-----------------------------------------------------------------| 
B|-----------------------------------------------------------------| 
G|-------------------------5---------7-----------------------------| 
D|-------------------------5---------7------------------------3----| 
A|-------------------------3---------5------------------------3----| 
E|------------------------------------------------------------1----| 
       I wanna live with abandon            Give You all that I am   
e|------------------------------------------------------------------| 
B|------------------------------------------------------------------| 
G|-------------------5-----------------------7----------------------| 
D|-------------------5-----------------------7---------------3------| 
A|-------------------3-----------------------5---------------3------| 
E|-----------------------------------------------------------1------| 
      Every part of my heart Jesus           I place in Your hands 
Bridge (Slide up near end) 
e|---8/13-------------------| 
B|--------------------------| 
G|---5/10-------------------| 
D|--------------------------| 
A|--------------------------| 
E|--------------------------| 

BASS TAB 
G|--------------------------| 
D|--------------------------| 
A|---3--5-------------------| 
E|---------1----------------| 
seriously that's it (lol) 
************************************ 

| /   slide up 
| \   slide down 
| h   hammer-on 
| p   pull-off 
| ~   vibrato 
| +   harmonic 
| x   Mute note 
| b   Bend 
| pb  Pre-bend 
| br  Bend release 
| pbr Pre-bend release 
| brb Bend release bend 

************************************ 
	  

Search Paypal
auto scroll beats size up size down change color hide chords drawings
tab show chords e-chords YouTube Clip e-chords hide all tabs e-chords go to top tab