Newsboys

home > Newsboys

Jesus Freak Tab

Newsboys

Difficulty: nolevelnolevel

by bombaXXX

tuner correct add songbook print version text version save to e-mail
chordsukulelecavacokeyboardtabbassdrumsharmonicsflute Guitar Pro
chords

Jesus Freak

  		

 

  

Intro: 
e|---------------------------------------------------------------------------| 
B|---------6---6---6---6---8---8---4---4------4------------------------------| 
G|-----------5---5---5---5---5---5---5---5---------------------------x2------| 
D|---------------------------------------------------------------------------| 
A|---------------------------------------------------------------------------| 
E|---------------------------------------------------------------------------| 
Fill: 
e|---------------------------------------------------------------------------| 
B|---------------------------------------------------------------------------| 
G|-------------------------------3---3---3---3-------------------------------| 
D|-------------------------------0---0---0---0---3---3---3---3-------x4------| 
A|---3---3---3---6---6---6---6-------------------0---0---0---0---------------| 
E|---0---0---0---4---4---4---4-----------------------------------------------| 
verse 1: 
e|---------------------------------------------------------------------------| 
B|--------6---6---6---6---8---8---4---4------4-------------------------------| 
G|----------5---5---5---5---5---5---5---5------------------------------------| 
D|---------------------------------------------------------------------------| 
A|---------------------------------------------------------------------------| 
E|---------------------------------------------------------------------------| 
Chorus: 
e|---------------------------------------------------------------------------| 
B|---------------------------------------------------------------------------| 
G|-------------------------------3---3---3---3-------------------------------| 
D|-------------------------------0---0---0---0---3---3---3---3-------x4------| 
A|---3---3---3---6---6---6---6-------------------0---0---0---0---------------| 
E|---0---0---0---4---4---4---4-----------------------------------------------| 

Sorry i don't have the solo if anybody knows the solo please put in the correction box 
	  

Search Paypal
auto scroll beats size up size down change color hide chords drawings
tab show chords e-chords YouTube Clip e-chords hide all tabs e-chords go to top tab