Newsboys

home > Newsboys

I Would Give Everything Tab

Newsboys

Difficulty: nolevelnolevel

by ang%2Dletra

tuner correct add songbook print version text version save to e-mail
chordsukulelecavacokeyboardtabbassdrumsharmonicsflute Guitar Pro
chords

I Would Give Everything

  		Intro: 

e|------------------------| 
B|------------------------| 
G|--------16--------------| 
D|---13h14--14-13h14p13---| 
A|------------------------| 
E|------------------------| 
(Dada da da dadada...) 

Verses: 

    D#m 
e|---6------------------------| 
B|---7------------------------| 
G|---8------------------------| 
D|---8----13-15-16-15-13-11---| 
A|---6-----13-----------------| 
E|---6------------------------| 
(Walk outside...) 
    
     B 
e|---7-------------------| 
B|---7-------------------| 
G|---8-------------------| 
D|---9-------------------| 
A|---9---14-13-14-16-----| 
E|---7--------------11---| 
(You're standing in the rain) 

Choruses: 

e|------------------------| 
B|------------------------| 
G|--------16--------------| 
D|---13h14--14-13h14p13---| 
A|------------------------| 
E|------------------------| 
(I would give everything...) 

Bridge: 
     
    G#m    F#        E 
e|---4-----2---------0---| 
B|---4-----2---------0---| 
G|---4-----3---------1---| 
D|---6-----4---------2---| 
A|---6-----4---------2---| 
E|---4-----2---------0---| 
 (How long till everything) 

 
	  

Full key step upFull key step up
Half key step upHalf key step up
Half key step downHalf key step down
Full key step downFull key step down
Search Paypal
auto scroll beats size up size down change color hide chords drawings
tab show chords e-chords YouTube Clip e-chords hide all tabs e-chords go to top tab