Newsboys

home > Newsboys

Elle G Tab

Newsboys

Difficulty: nolevelnolevel

by vasodebarro

tuner correct add songbook print version text version save to e-mail
chordsukulelecavacokeyboardtabbassdrumsharmonicsflute Guitar Pro
chords

Elle G

Year: 1994 - Album: Going Public

  		The following is bass tab for Elle G. By Newsboys recorded on GOING PUBLIC 
------------------------------------------------------------------------ 
------------------------------------------------------------------------ 
---0--3--5--5--5--5--5--5--3--3--3--3--0--3\7--7--7--7--7--7--0--0--0--0 
------------------------------------------------------------------------ 
That's the opening riff, it's played 4 or 5 times 
----------------------------------------------------------------------- 
----------------------------------------------------------------------- 
--0--0--0--0--0--0--0--0--3--3--3--3--3--3--3--3--0--0--0--0--0--0--0--0 
----------------------------------------------------------------------- 
----------------------------------------------------------------------- 
----------------------------------------------------------------------- 
------------------------------------------------------------------------ 
--3--3--3--3--3--3--3--3----------------------------------------------- 
This is between the opening and the Chorus, right before the Chorus the G  
is repeated an extra 8 beats for a total of 16 
------------------------------------------------------------------------ 
------------------------------------------------------------------------ 
--0--0--0--0--0--0--0--0--5--5--5--5--5--5--5--5------------------------ 
--------------------------------------------------3--3--3--3--3--3--3--3- 
-------------------------------------------------------------------------- 
--------------------------3--3--3--3--3--3--3--3------------------------- 
--3--3--3--3--3--3--3--3-------------------------0--0--0--0--0--0--0--0-- 
------------------------------------------------------------------------- 
------------------------------------------------------------------------ 
--3--3--3--3--3--3--3--3------------------------------------------------ 
------------------------------------------------------------------------ 
----------------------------------------------------------------------- 
That is the Chorus it usually repeats twice, at the end of the Chorus it  
goes back into the intro riff, and then repeats the entire loop again. 

	  

Full key step upFull key step up
Half key step upHalf key step up
Half key step downHalf key step down
Full key step downFull key step down
Search Paypal
auto scroll beats size up size down change color hide chords drawings
tab show chords e-chords YouTube Clip e-chords hide all tabs e-chords go to top tab