Newsboys

home > Newsboys

Cup O Tea Tab

Newsboys

Difficulty: BeginnerBeginner

by vasodebarro

tuner correct add songbook print version text version save to e-mail
chordsukulelecavacokeyboardtabbassdrumsharmonicsflute Guitar Pro
chords

Cup O Tea

Year: 1996 - Album: Take Me to Your Leader

  		Intro/verse (12x) 
G|--------------9---------------9-| 
D|----7-------7-------9-------7---| 
A|--7----0-00------------0-00-----| 
E|0-----------------0-------------| 

Chorus: 
G|--------------------------------| 
D|--------------------------------| 
A|2---2---7-7---------------------| 
E|--------------3---3-3---2-2---3-| 

G|--------------------------------| 
D|--------------------------------| 
A|--------------------------------| 
E|--3-3---2-2---------------------| 

Bridge: 
G|----7---5-5-5-7---7-7---5-7-----| 
D|0-------------------------------| 
A|--------------------------------| 
E|--------------------------------| 

G|14--14--14--14--14----------14------14------11------12--14-----| 
D|---------------------------------------------------------------| 
A|---------------------------------------------------------------| 
E|---------------------------------------------------------------| 

G|------7---5---7---5-7---5---7/--| 
D|0---0---------------------------| 
A|--------------------------------| 
E|--------------------------------| 

|17------17------17--16------14\-----11------11------12--14------| 
|----------------------------------------------------------------| 
|----------------------------------------------------------------| 
|----------------------------------------------------------------| 

Song order: 
VERSE 
Chorus 
VERSE 
Chorus 
BRIDGE 
VERSE 
Chorus (repeated a number of times) 


	  

Search Paypal
auto scroll beats size up size down change color hide chords drawings
tab show chords e-chords YouTube Clip e-chords hide all tabs e-chords go to top tab