Newsboys

home > Newsboys

Always Tab

Newsboys

Difficulty: AdvancedAdvanced

by vasodebarro

tuner correct add songbook print version text version save to e-mail
chordsukulelecavacokeyboardtabbassdrumsharmonicsflute Guitar Pro
chords

Always

Year: 1998 - Album: Step Up To The Microphone

  		main Riff 
D-------------------------- 
A----8--8--8----10-10-10--- 
E--10-10-10----8--8--8----- 


Chorus 
D---10-10-10-----10---10---10----------------------- 
A--8--8--8-----------------------10-10-10-----8-8-8- 
E-------------10---10---10------8--8--8-----6--6-6-- 

After Chorus 
D-------------------------------------------------------- 
A----8--8--8---10-10-10---------10---10---8----10-10-10-- 
E--10-10-10---8--8--8--------10---10---10-----8--8--8---- 

Interlude 
D----------------------------------------------- 
A-----8--8---8---8----8---8--10-10-10-10-10-10-- 
E--10--10--10--10--10---10--8--8--8--8--8--8--8- 

Then This 
G-----10-----10---------10-----10------------------------------- 
D---10--10-10--10-----10--10-10--10----10-----10-------8---8---- 
A--8---------------------------------10--10-10--10----8-8-8-8--- 
E------------------10---------------8----------------6---------- 

Last Part 

F  Dm  C  Bb 
	  

Full key step upFull key step up
Half key step upHalf key step up
Half key step downHalf key step down
Full key step downFull key step down
Search Paypal
auto scroll beats size up size down change color hide chords drawings
tab show chords e-chords YouTube Clip e-chords hide all tabs e-chords go to top tab