Newday

Where The Spirit Of The Lord Is

Newday

tabs

by  HUGO_RODRIGUES

save to print version add songbook text version e-mail correct tuner
chordsukulelecavacokeyboardtabbassdrumsharmonicaflute Guitar Pro
close

there isn't a video lesson for this song

chords

Where The Spirit Of The Lord Is

	  		
Intro 

e|---------------------------------------------------------------------------| 
B|---------------------------------------------------------------------------| 
G|---------------------------------------------------------------------------| 
D|-------6-4--2---2-4--8b9b8-----------6-4---2--2-4-8b9b8--------------------|x2 
A|--2-4-----4---4-----------------2-4------4---4-----------------------------| 
E|4-----------------------------4--------------------------------------------| 

Verse 

e|---------------------------------------------------------------------------| 
B|---------------------------------------------------------------------------| 
G|---------------------------------------------------------------------------| 
D|-------6-4---------------------------6-4---2-------------------------------| 
A|4-2-4--------------------------4-2-4---------------------------------------| 
E|---------------------------------------------------------------------------| 

e|---------------------------------------------------------------------------| 
B|---------------------------------------------------------------------------| 
G|---------------------------------------------------------------------------| 
D|-------6-4---------------------------6-4---2---4---------------------------| 
A|4-2-4--------------------------4-2-4---------------------------------------| 
E|---------------------------------------------------------------------------| 

Pre-Chorus 

e|---------------------------------------------------------------------------| 
B|---------------------------------------------------------------------------| 
G|15b16--14b15-8b9-----------------------------------------------------------| 
D|---------------------------------------------------------------------------| 
A|---------------------------------------------------------------------------| 
E|---------------------------------------------------------------------------| 


Chorus 

e|---------------------------------------------------------------------------| 
B|---------------------------------------------------------------------------| 
G|6-6-6-6-6-6-6-6-4-4-4-4----------------------------------------------------| 
D|6-6-6-6-6-6-6-6-4-4-4-4-4-4-4-4--------------------------------------------| 
A|4-4-4-4-4-4-4-4-2-2-2-2-4-4-4-4--------------------------------------------| 
E|------------------------2-2-2-2--------------------------------------------| 


Instrumental 

e|---------------------------------------------------------------------------| 
B|---------------------------------------------------------------------------| 
G|---------------------------------------------------------------------------| 
D|-------6-4--2---2-4--8b9b8-----------6-4---2--2-4-8b9b8--------------------|x2 
A|--2-4-----4---4-----------------2-4------4---4-----------------------------| 
E|4-----------------------------4--------------------------------------------| 


Verse 

e|---------------------------------------------------------------------------| 
B|---------------------------------------------------------------------------| 
G|---------------------------------------------------------------------------| 
D|-------6-4---------------------------6-4---2-------------------------------| 
A|4-2-4--------------------------4-2-4---------------------------------------| 
E|---------------------------------------------------------------------------| 

e|---------------------------------------------------------------------------| 
B|---------------------------------------------------------------------------| 
G|---------------------------------------------------------------------------| 
D|-------6-4---------------------------6-4---2---4---------------------------| 
A|4-2-4--------------------------4-2-4---------------------------------------| 
E|---------------------------------------------------------------------------| 


Pre-Chorus 

e|---------------------------------------------------------------------------| 
B|---------------------------------------------------------------------------| 
G|15b16--14b15-8b9-----------------------------------------------------------| 
D|---------------------------------------------------------------------------| 
A|---------------------------------------------------------------------------| 
E|---------------------------------------------------------------------------| 


Chorus 

e|---------------------------------------------------------------------------| 
B|---------------------------------------------------------------------------| 
G|6-6-6-6-6-6-6-6-4-4-4-4----------------------------------------------------| 
D|6-6-6-6-6-6-6-6-4-4-4-4-4-4-4-4--------------------------------------------|x4 
A|4-4-4-4-4-4-4-4-2-2-2-2-4-4-4-4--------------------------------------------| 
E|------------------------2-2-2-2--------------------------------------------|  
		  

See also:

tabs Ira! - Poço de Sensibilidade (Solo - Acustico Mtv) tabs Deep Purple - Smoke On The Water tabs Deep Purple - Smoke on the water (intro) tabs Ira! - Eu Quero Sempre Mais (Com Pitty, intro) tabs Deep Purple - Smoke on the Water (ver. 2) tabs Deep Purple - Knocking At Your Back Door
e-chords

Other versions:

tabs Newday - Where The Spirit Of The Lord Is
auto scroll beats size up size down change color hide chords drawings
tab show chords e-chords YouTube Clip e-chords hide all tabs e-chords go to top tab

share