New Years Day

Angel Eyes

New Years Day

tabs

by  HEBEALMEIDA

save to print version add songbook text version e-mail correct tuner
chordsukulelecavacokeyboardtabbassdrumsharmonicaflute Guitar Pro
close

there isn't a video lesson for this song

chords

Angel Eyes

	  		

Tuning: Drop B 

Also see my more comprehensive Guitar Pro tab of this song. 

verse 1 (x2, end on open low B string second time) 
C#|-------------------------------------------------------------------| 
G#|-------------------------------------------------------------------| 
E |-------------------------------------------------------------------| 
B |-------------------------------------------------------------------| 
F#|-------------------------------------------------------------------| 
B |-0-0-0-3-0-----0-0-0-3-0-----0-0-0-3-0-----0-0-0-3-0---0-0-0-3-1---| 

Chorus 1 (x2, end on open low B string, F# and B string second time) 
C#|-----------------------------------------------------------------------------| 
G#|-----------------------------------------------------------------------------| 
E |-10----7---------------------------------------------------------------------| 
B |-8-----5---------------------------------------------------------------------| 
F#|-8-----5---------------------------------------------------------------------| 
B |-8-----5-----0-0-0-3-0---0-0-0-3-0---0-0-0-3-0-0-0-3-0---0-0-0-3-0---0-0-0-3-| 

verse 2 (x2) 
C#|-----------------| 
G#|-----------------| 
E |-----------------| 
B |-3-0-----6-5-----| 
F#|-3-0-----6-5-----| 
B |-3-0-----6-5-----| 

Chorus 2 (Same as Chorus 1) 

Bridge Part 1 (x2) 
C#|-----------------------------| 
G#|-----------------------------| 
E |-----------------------------| 
B |-----------------------------| 
F#|-----------------------------| 
B |-0-(x6)-3-(x6)-8-(x6)-5-(x6)-| 

Bridge Part 2 (x4) 
C#|-----------------------------| 
G#|-----------------------------| 
E |-----------------------------| 
B |-0------3------8------5------| 
F#|-0-(x6)-3-(x6)-8-(x6)-5-(x6)-| 
B |-0------3------8------5------| 

Chorus 3 (Same as Chorus 1) 

Outro 
C#|-----------------------------------------------------------------| 
G#|-----------------------------------------------------------------| 
E |-----------------------------------------------------------------| 
B |-----------------------------------------------------------------| 
F#|-----------------------------------------------------------------| 
B |-0-0-0-3-0---0-0-0-3-0---0-0-0-3-0-0-0-3-0---0-0-0-3-0---0-0-1-1-| 

Thanks for reading the tab, please rate and comment corrections! 

************************************ 

| /   slide up 
| \   slide down 
| h   hammer-on 
| p   pull-off 
| ~   vibrato 
| +   harmonic 
| x   Mute note 
| b   Bend 
| pb  Pre-bend 
| br  Bend release 
| pbr Pre-bend release 
| brb Bend release bend 

************************************ 
		  

auto scroll beats size up size down change color hide chords drawings
tab show chords e-chords YouTube Clip e-chords hide all tabs e-chords go to top tab

share