Nelly Furtado

Promiscuous

Nelly Furtado

tabs Beginner beginner

by  EUROPEU

save to print version add songbook text version e-mail correct tuner
chordsukulelecavacokeyboardtabbassdrumsharmonicaflute Guitar Pro
close

there isn't a video lesson for this song

chords

Promiscuous

Year: 2006 - Album: Loose

	  		The Verses:  Repeat like a billion times 
 
e:-------1-------------------------------------| 
B:-2---2---4-4-2-------------------------------| 
G:---3-----------------------------------------| 
D:---------------------------------------------| 
A:---------------------------------------------| 
E:---------------------------------------------| 
 
The Chorus: repeated 4 times 
 
e:---------------------------------------------| 
B:---------------------------------------------| 
G:---------------------------------------------| 
D:---------------------------------------------| 
A:-----6---9-8---4-----------------------------| 
E:-6---------------6---------------------------| 
 
 
I prefer to play the verses with chords 
 
Bbm              Ebm 
Promiscuous girl  
                     Gb Bb 
Wherever you are 
          Bb Gb 
I?m all alone 
                           Bbm 
And it's you that I want  
 
                   Ebm 
Promiscuous boy  
                     Gb Bb 
You already know  
                   Bb Gb 
That I?m all yours  
                         Bbm 
What you waiting for?  
 
                   Ebm 
Promiscuous girl  
                     Gb Bb 
You're teasing me  
                       Bb Gb 
You know what I want  
                             Bbm 
And I got what you need  
 
Promiscuous boy  
Let's get to the point  
Cause we're on a roll  
You ready? 
 

		  

Full key step upFull key step up
Half key step upHalf key step up
Half key step downHalf key step down
Full key step downFull key step down
hide glossary

See also:

tabs Humanos - Muda de vida tabs Nelly Furtado - Afraid tabs Sugarleaf - Everythung Is So Confuse tabs Nelly Furtado - In God's Hands tabs Nelly Furtado - Promiscuous tabs Nelly Furtado - All Good Things Come To An End
e-chords

Other versions:

tabs Nelly Furtado - Promiscuous
auto scroll beats size up size down change color hide chords drawings
tab show chords e-chords YouTube Clip e-chords hide all tabs e-chords go to top tab

share