Negrita

Hollywood Sofa Cosi E La Vita

Negrita

tabs

by  ADALGOMES

save to print version add songbook text version e-mail correct tuner
chordsukulelecavacokeyboardtabbassdrumsharmonicaflute Guitar Pro
close

there isn't a video lesson for this song

chords

Hollywood Sofa Cosi E La Vita

	  		Riff 1 

e|-------------------------|---------------|-----------------------|---------------| 
B|-------------------------|---------------|-----------------------|---------------| 
G|----2/4--4--4\2--1--1----|---------------|----2/4--4--4\2--1--1--|---------------|               
D|----4/6--6--6\4--2--2----|-------2-------|----4/6--6--6\4--2--2--|-------2-------| 
A|-------------------------|----4-----2----|-----------------------|----4-----2----| 
E|-------------------------|---------------|-----------------------|---------------| 

e|----2--0--0--0--|--2--2--0--0--|----x----------------|----------------| 
B|----3--3--3--3--|--3--3--3--3--|----2----2--2--3--2--|--3--3--2--0----| 
G|----2--2--2--2--|--2--2--2--2--|----2----2--2--2--2--|--2--2--2--0----| 
D|----------------|--------------|----2----2--2--2--2--|--2--2--2--0----| 
A|----------------|--------------|---------------------|----------------| 
E|----------------|--------------|---------------------|----------------| 


Interlude 

e|-----------------------|---------------|-----------------------|----------------------------| 
B|-----------------------|---------------|-----------------------|----------------------------| 
G|----2/4--4--4\2--1--1--|---------------|----2/4--4--4\2--1--1--|----------------------------|   
D|----4/6--6--6\4--2--2--|-------2-------|----4/6--6--6\4--2--2--|-------2----2/4--2----------| 
A|-----------------------|----4-----2----|-----------------------|----4---------------4--2----| 
E|-----------------------|---------------|-----------------------|----------------------------| 


Riff 1 

e|-------------------------|---------------|-----------------------|---------------| 
B|-------------------------|---------------|-----------------------|---------------| 
G|----2/4--4--4\2--1--1----|---------------|----2/4--4--4\2--1--1--|---------------|               
D|----4/6--6--6\4--2--2----|-------2-------|----4/6--6--6\4--2--2--|-------2-------| 
A|-------------------------|----4-----2----|-----------------------|----4-----2----| 
E|-------------------------|---------------|-----------------------|---------------| 

e|----2--0--0--0--|--2--2--0--0--|----x----------------|----------------| 
B|----3--3--3--3--|--3--3--3--3--|----2----2--2--3--2--|--3--3--2--0----| 
G|----2--2--2--2--|--2--2--2--2--|----2----2--2--2--2--|--2--2--2--0----| 
D|----------------|--------------|----2----2--2--2--2--|--2--2--2--0----| 
A|----------------|--------------|---------------------|----------------| 
E|----------------|--------------|---------------------|----------------| 


Riff 2 

e|-----------------------|---------------|-----------------------|---------------------------| 
B|-----------------------|---------------|-----------------------|---------------------------| 
G|----2/4--4--4\2--1--1--|---------------|----2/4--4--4\2--1--1--|---------------------------|   
D|----4/6--6--6\4--2--2--|-------2-------|----4/6--6--6\4--2--2--|---------2----4h2----------| 
A|-----------------------|----4-----2----|-----------------------|----2h4------------4--2----| 
E|-----------------------|---------------|-----------------------|---------------------------| 


e|-----------------------|---------------|-----------------------|-------------------| 
B|-----------------------|---------------|-----------------------|-------------------| 
G|----2/4--4--4\2--1--1--|---------------|----2/4--4--4\2--1--1--|-------------------|   
D|----4/6--6--6\4--2--2--|-------2-------|----4/6--6--6\4--2--2--|---------2---------| 
A|-----------------------|----4-----2----|-----------------------|----2h4-------2----| 
E|-----------------------|---------------|-----------------------|-------------------| 

e|----2--0--0--0--|--2--2--0--0--|----x----------------|----------------| 
B|----3--3--3--3--|--3--3--3--3--|----2----2--2--3--2--|--3--3--2--0----| 
G|----2--2--2--2--|--2--2--2--2--|----2----2--2--2--2--|--2--2--2--0----| 
D|----------------|--------------|----2----2--2--2--2--|--2--2--2--0----| 
A|----------------|--------------|---------------------|----------------| 
E|----------------|--------------|---------------------|----------------| 


Riff 3 

e|-----------------------|---------------|-----------------------|---------------------------| 
B|-----------------------|---------------|-----------------------|---------------------------| 
G|----2/4--4--4\2--1--1--|---------------|----2/4--4--4\2--1--1--|---------------------------|   
D|----4/6--6--6\4--2--2--|-------2-------|----4/6--6--6\4--2--2--|---------2----4h2----------| 
A|-----------------------|----4-----2----|-----------------------|----2h4------------4--2----| 
E|-----------------------|---------------|-----------------------|---------------------------| 

e|-------------------------|---------------|-----------------------|---------------| 
B|-------------------------|---------------|-----------------------|---------------| 
G|----2/4--4--4\2--1--1----|---------------|----2/4--4--4\2--1--1--|---------------|               
D|----4/6--6--6\4--2--2----|-------2-------|----4/6--6--6\4--2--2--|-------2-------| 
A|-------------------------|----4-----2----|-----------------------|----4-----2----| 
E|-------------------------|---------------|-----------------------|---------------| 

e|----2--0--0--0--|--2--2--0--0--|----x----------------|----------------| 
B|----3--3--3--3--|--3--3--3--3--|----2----2--2--3--2--|--3--3--2--0----| 
G|----2--2--2--2--|--2--2--2--2--|----2----2--2--2--2--|--2--2--2--0----| 
D|----------------|--------------|----2----2--2--2--2--|--2--2--2--0----| 
A|----------------|--------------|---------------------|----------------| 
E|----------------|--------------|---------------------|----------------| 


Riff 4 

e|-----------------------|---------------|-----------------------|----------------------------| 
B|-----------------------|---------------|-----------------------|----------------------------| 
G|----2/4--4--4\2--1--1--|---------------|----2/4--4--4\2--1--1--|----------------------------|   
D|----4/6--6--6\4--2--2--|-------2-------|----4/6--6--6\4--2--2--|-------2----2/4--2----------| 
A|-----------------------|----4-----2----|-----------------------|----4---------------4--2----| 
E|-----------------------|---------------|-----------------------|----------------------------| 

e|-------------------------|---------------|-----------------------|---------------| 
B|-------------------------|---------------|-----------------------|---------------| 
G|----2/4--4--4\2--1--1----|---------------|----2/4--4--4\2--1--1--|---------------|               
D|----4/6--6--6\4--2--2----|-------2-------|----4/6--6--6\4--2--2--|-------2-------| 
A|-------------------------|----4-----2----|-----------------------|----4-----2----| 
E|-------------------------|---------------|-----------------------|---------------| 

e|----2--0--0--0--|--2--2--0--0--|----x----------------|----------------| 
B|----3--3--3--3--|--3--3--3--3--|----2----2--2--3--2--|--3--3--2--0----| 
G|----2--2--2--2--|--2--2--2--2--|----2----2--2--2--2--|--2--2--2--0----| 
D|----------------|--------------|----2----2--2--2--2--|--2--2--2--0----| 
A|----------------|--------------|---------------------|----------------| 
E|----------------|--------------|---------------------|----------------| 


Riff 4 

e|-----------------------|---------------|-----------------------|----------------------------| 
B|-----------------------|---------------|-----------------------|----------------------------| 
G|----2/4--4--4\2--1--1--|---------------|----2/4--4--4\2--1--1--|----------------------------|   
D|----4/6--6--6\4--2--2--|-------2-------|----4/6--6--6\4--2--2--|-------2----2/4--2----------| 
A|-----------------------|----4-----2----|-----------------------|----4---------------4--2----| 
E|-----------------------|---------------|-----------------------|----------------------------| 

e|-------------------------|---------------|-----------------------|---------------| 
B|-------------------------|---------------|-----------------------|---------------| 
G|----2/4--4--4\2--1--1----|---------------|----2/4--4--4\2--1--1--|---------------|               
D|----4/6--6--6\4--2--2----|-------2-------|----4/6--6--6\4--2--2--|-------2-------| 
A|-------------------------|----4-----2----|-----------------------|----4-----2----| 
E|-------------------------|---------------|-----------------------|---------------| 

e|----2--0--0--0--|--2--2--0--0--|----x----------------|----------------| 
B|----3--3--3--3--|--3--3--3--3--|----2----2--2--3--2--|--3--3--2--0----| 
G|----2--2--2--2--|--2--2--2--2--|----2----2--2--2--2--|--2--2--2--0----| 
D|----------------|--------------|----2----2--2--2--2--|--2--2--2--0----| 
A|----------------|--------------|---------------------|----------------| 
E|----------------|--------------|---------------------|----------------| 


Riff 5 

e|-------------------------|---------------|-----------------------|---------------| 
B|-------------------------|---------------|-----------------------|---------------| 
G|----2/4--4--4\2--1--1----|---------------|----2/4--4--4\2--1--1--|---------------|               
D|----4/6--6--6\4--2--2----|-------2-------|----4/6--6--6\4--2--2--|-------2-------| 
A|-------------------------|----4-----2----|-----------------------|----4-----2----| 
E|-------------------------|---------------|-----------------------|---------------| 

e|-------------------------|---------------|-----------------------|---------------| 
B|-------------------------|---------------|-----------------------|---------------| 
G|----2/4--4--4\2--1--1----|---------------|----2/4--4--4\2--1--1--|---------------|               
D|----4/6--6--6\4--2--2----|-------2-------|----4/6--6--6\4--2--2--|-------2-------| 
A|-------------------------|----4-----2----|-----------------------|----4-----2----| 
E|-------------------------|---------------|-----------------------|---------------| 

e|----2--0--0--0--|--2--2--0--0--|----x----------------|----------------| 
B|----3--3--3--3--|--3--3--3--3--|----2----2--2--3--2--|--3--3--2--0----| 
G|----2--2--2--2--|--2--2--2--2--|----2----2--2--2--2--|--2--2--2--0----| 
D|----------------|--------------|----2----2--2--2--2--|--2--2--2--0----| 
A|----------------|--------------|---------------------|----------------| 
E|----------------|--------------|---------------------|----------------| 


Riff 4 

e|-----------------------|---------------|-----------------------|----------------------------| 
B|-----------------------|---------------|-----------------------|----------------------------| 
G|----2/4--4--4\2--1--1--|---------------|----2/4--4--4\2--1--1--|----------------------------|   
D|----4/6--6--6\4--2--2--|-------2-------|----4/6--6--6\4--2--2--|-------2----2/4--2----------| 
A|-----------------------|----4-----2----|-----------------------|----4---------------4--2----| 
E|-----------------------|---------------|-----------------------|----------------------------| 

e|-------------------------|---------------|-----------------------|---------------| 
B|-------------------------|---------------|-----------------------|---------------| 
G|----2/4--4--4\2--1--1----|---------------|----2/4--4--4\2--1--1--|---------------|               
D|----4/6--6--6\4--2--2----|-------2-------|----4/6--6--6\4--2--2--|-------2-------| 
A|-------------------------|----4-----2----|-----------------------|----4-----2----| 
E|-------------------------|---------------|-----------------------|---------------| 

e|----2--0--0--0--|--2--2--0--0--|----x----------------|----------------| 
B|----3--3--3--3--|--3--3--3--3--|----2----2--2--3--2--|--3--3--2--0----| 
G|----2--2--2--2--|--2--2--2--2--|----2----2--2--2--2--|--2--2--2--0----| 
D|----------------|--------------|----2----2--2--2--2--|--2--2--2--0----| 
A|----------------|--------------|---------------------|----------------| 
E|----------------|--------------|---------------------|----------------| 


Riff 5 

e|-------------------------|---------------|-----------------------|---------------| 
B|-------------------------|---------------|-----------------------|---------------| 
G|----2/4--4--4\2--1--1----|---------------|----2/4--4--4\2--1--1--|---------------|               
D|----4/6--6--6\4--2--2----|-------2-------|----4/6--6--6\4--2--2--|-------2-------| 
A|-------------------------|----4-----2----|-----------------------|----4-----2----| 
E|-------------------------|---------------|-----------------------|---------------| 

e|-------------------------|---------------|-----------------------|---------------| 
B|-------------------------|---------------|-----------------------|---------------| 
G|----2/4--4--4\2--1--1----|---------------|----2/4--4--4\2--1--1--|---------------|               
D|----4/6--6--6\4--2--2----|-------2-------|----4/6--6--6\4--2--2--|-------2-------| 
A|-------------------------|----4-----2----|-----------------------|----4-----2----| 
E|-------------------------|---------------|-----------------------|---------------| 

e|----2--0--0--0--|--2--2--0--0--|----x----------------|----------------| 
B|----3--3--3--3--|--3--3--3--3--|----2----2--2--3--2--|--3--3--2--0----| 
G|----2--2--2--2--|--2--2--2--2--|----2----2--2--2--2--|--2--2--2--0----| 
D|----------------|--------------|----2----2--2--2--2--|--2--2--2--0----| 
A|----------------|--------------|---------------------|----------------| 
E|----------------|--------------|---------------------|----------------| 


Outro 

e|-----------------------|---------------|-----------------------|-------------------| 
B|-----------------------|---------------|-----------------------|--------------0----| 
G|----2/4--4--4\2--1--1--|---------------|----2/4--4--4\2--1--1--|--------------1----|   
D|----4/6--6--6\4--2--2--|-------2-------|----4/6--6--6\4--2--2--|---------2----2----| 
A|-----------------------|----4-----2----|-----------------------|----2h4------------| 
E|-----------------------|---------------|-----------------------|-------------------|  
		  

See also:

tabs Ira! - Envelheço na Cidade tabs Deep Purple - Smoke On Water tabs Ira! - Inundação de Amor tabs Deep Purple - Stormbringer tabs Deep Purple - Money Talks tabs Ira! - A vida por um fio
e-chords

Other versions:

tabs Negrita - Hollywood Sofa Cosi E La Vita
auto scroll beats size up size down change color hide chords drawings
tab show chords e-chords YouTube Clip e-chords hide all tabs e-chords go to top tab

share