Nazareth

home > Nazareth

Love Hurts Tab

Nazareth

Difficulty: ExpertExpert

by %5FSiMPSoN%5F

tuner correct add songbook print version text version save to e-mail
chordsukulelecavacokeyboardtabbassdrumsharmonicsflute Guitar Pro
chords

Love Hurts

Year: 1975 - Album: Hair of the Dog Live

  		Intro: 
                  
    G                                F     C 
e |---------3--------------3---------1-----0---0-|  2x 
B |----------3--------------3--------1-----1-----| 
G |-----0-0----0-0-----0-0----0-0----2-----0-----| 
D |---0--------------0---------------3-----2-----| 
A |----------------------------------3-----3-----| 
E |-3--------------3-----------------1-----0-----| 
        G       Em      C       D 
e |--11-9----11-9----11-9----13-11-|    2x 
          C        G      B       Em     Bb      C 
e |----11-11--9-9--8----8-8--6-6--4----8-8--6-6--4---|   
B |--9-----------------------------------------------| 
              D  
e |----------------6--4-| 
B |--6---6-6--4---------| 
 
 
 

	  

Full key step upFull key step up
Half key step upHalf key step up
Half key step downHalf key step down
Full key step downFull key step down
Search Paypal
auto scroll beats size up size down change color hide chords drawings
tab show chords e-chords YouTube Clip e-chords hide all tabs e-chords go to top tab