Natives

The Horizon

Natives

tabs

by  GUSTSILVA

save to print version add songbook text version e-mail correct tuner
chordsukulelecavacokeyboardtabbassdrumsharmonicaflute Guitar Pro
close

there isn't a video lesson for this song

chords

The Horizon

	  		

Intro  

Guitar 1 
e|---------------------------------------------------------------------------| 
B|---------------------------------------------------------------------------| 
G|---------------------------------------------------------------------------| 
D|---------------------------------------------------------------------------| 
A|---------------------------------------------------------------------------| 
D|-12\--0-2-4-7-9-99-7-9-99-7-9-99--7---0-2-4-7-9-99-7-9-99-7-9-99---12\-----| 

e|---------------------------------------------------------------------------| 
B|---------------------------------------------------------------------------| 
G|---------------------------------------------------------------------------| 
D|---------------------------------------------------------------------------| 
A|---------------------------------------------------------------------------| 
D|-12\--0-2-4-7-9-99-7-9-99-7-9-99--7---0-2-4-7-9-99-7-9-99-7-9-99---12\-----| 



Guitar 2: Each of these notes is played tremolo for a bar of the intro 
i.e. 7 for the first two bars and 11 on the third.  
e|-10--------------------10--------------------14------------------10--------| 
B|-x---------------------x---------------------x-------------------x---------| 
G|-7---------------------7---------------------11------------------7---------| 
D|---------------------------------------------------------------------------| 
A|---------------------------------------------------------------------------| 
D|---------------------------------------------------------------------------| 
A third guitar plays this tiny lick at the end of the fourth bar. 
e|---------------------------------------------------------------------------| 
B|---------------------------------------------------------------------------| 
G|--14-14-14---12--11--------------------------------------------------------| 
D|---------------------------------------------------------------------------| 
A|---------------------------------------------------------------------------| 
E|---------------------------------------------------------------------------| 

Verse- Guitar 1 
e|---------------------------------------------------------------------------| 
B|---------------------------------------------------------------------------| 
G|---------------------------------------------------------------------------| 
D|0~-----------------------------------0~------------------------------------| 
A|0~-----------------------------------0~------------------------------------| 
D|0~----0-2-4-7-9-99-7-9-99-7-9-99--7--0~----0-2-4-7-9-99-7-9-99-7-9-99--12\-| 

e|---------------------------------------------------------------------------| 
B|---------------------------------------------------------------------------| 
G|---------------------------------------------------------------------------| 
D|5~-------------------------------0~----------------------------------------| 
A|5~-------9-7-5-------------------0~----------------------------------------| 
D|5~-------------99-7-99-7-9--7\---0~---0-2-4-7-9-99-7-9-99-7-9-99--12\------| 

Pre Chorus- Guitar 3 

  So gather your thoughts, prepare for this war, the truth is your armour 
e|--3----------------------0--------------------------3----------------------| 
B|--3----------------------3--------------------------3----------------------| 
G|--4----------------------4--------------------------4----------------------| 
D|--5----------------------4--------------------------5----------------------| 
A|--5----------------------2--------------------------5----------------------| 
E|--3-------------------------------------------------3----------------------| 

Chorus 
Guitar 1 
e|---------------------------------------------------------------------------| 
B|---------------------------------------------------------------------------| 
G|---------------------------------------------------------------------------| 
D|-0---------7----------2------------0-----------7----------2----------------| 
A|-0---------7----------2------------0-----------7----------2----------------| 
D|-0---------7----------2------------0-----------7----------2----------------| 

e|---------------------------------------------------------------------------| 
B|---------------------------------------------------------------------------| 
G|-7-------------------------------------------------------------------------| 
D|-7--------5--------9-------5-------0-----------7----------2~---------------| 
A|-5--------5--------9-------5-------0-----------7----------2~---------------| 
E|----------5--------9-------5-------0-----------7----------2~---------------| 

Intro again. First two bars only but with the lick from the third guitar in the second bar. 

  
Verse 

Guitar 1 does the same as the first verse 


Guitar 2 - 1:37 (Not 100% certain on this, it's very quiet.)  
e|--10-7----7-7-----7-7-----7--10--12--------14-12------------------10-------| 
B|-------10------10------10------------------------15-12~--------------10----| 
G|---------------------------------------------------------------------------| 
D|---------------------------------------------------------------------------| 
A|---------------------------------------------------------------------------| 
D|---------------------------------------------------------------------------| 

A piano does this in the background really quietly at 1:46 
e|---------------------------------------------------------------------------| 
B|----12--10-----------------------------------------------------------------| 
G|------------11---------------------------------------------------12-11~----| 
D|---------------------------------------------------------------------------| 
A|---------------------------------------------------------------------------| 
D|---------------------------------------------------------------------------| 

Pre Chorus- 1:56 Piano does something like repeatedly until the Chorus 
e|---------------------------------------------------------------------------| 
B|----12----10---------------------------------------------------------------| 
G|-------11------------------------------------------------------------------| 
D|---------------------------------------------------------------------------| 
A|---------------------------------------------------------------------------| 
D|---------------------------------------------------------------------------| 

Chorus  
Intro riff. 

Bridge - 2:46 

Guitar 1 - Really not certain on this but this is my best guess. 
e|---------------------------------------------------------------------------| 
B|---------------------------------------------------------------------------| 
G|-----------------------------------7-7-7-7-7-7-7-7-7-7-7-7-7-7-7-7---------| 
D|-2-2-2-2-2-2-2-2--5-5-5-5-5-5-5-5--7-7-7-7-7-7-7-7-7-7-7-7-7-7-7-7---------| 
A|-2-2-2-2-2-2-2-2--5-5-5-5-5-5-5-5--5-5-5-5-5-5-5-5-5-5-5-5-5-5-5-5---------| 
D|-2-2-2-2-2-2-2-2--5-5-5-5-5-5-5-5------------------------------------------| 

e|---------------------------------------------------------------------------| 
B|---------------------------------------------------------------------------| 
G|-----------------------------------7-7-7-7-7-7-7-7-------------------------| 
D|-2-2-2-2-2-2-2-2--5-5-5-5-5-5-5-5--7-7-7-7-7-7-7-7-7-7-7-7-7-7-7-7---------| 
A|-2-2-2-2-2-2-2-2--5-5-5-5-5-5-5-5--5-5-5-5-5-5-5-5-7-7-7-7-7-7-7-7---------| 
D|-2-2-2-2-2-2-2-2--5-5-5-5-5-5-5-5------------------7-7-7-7-7-7-7-7---------| 

e|---------------------------------------------------------------------------| 
B|---------------------------------------------------------------------------| 
G|-4-4-4-4-4-4-4-4-4-4-4-4-4-4-4-4-5-5-5-5-5-5-5-5-5-5-5-5-5-5-5-5-----------| 
D|-4-4-4-4-4-4-4-4-4-4-4-4-4-4-4-4-5-5-5-5-5-5-5-5-5-5-5-5-5-5-5-5-----------| 
A|-2-2-2-2-2-2-2-2-2-2-2-2-2-2-2-2-3-3-3-3-3-3-3-3-3-3-3-3-3-3-3-3-----------| 
D|-------------------------------------------------------------------------0-| 


Guitar 2 
e|-7-7-7-5-5-5-5-5---7-7-7-5-5-5---------------------------------------------| 
B|-------------------------------8-8-7-7-7-7-7-7-7-7-7-7-7-7-----------------| 
G|---------------------------------------------------------------------------| 
D|---------------------------------------------------------------------------| 
A|---------------------------------------------------------------------------| 
D|---------------------------------------------------------------------------| 

e|-7-7-7-5-5-5-5-5---7-7-7-5-5-5---------------------------------------------| 
B|-------------------------------8-8-7-7-7-7-7-7-7-7-5-5-5-5-5-5-5-5---------| 
G|---------------------------------------------------------------------------| 
D|---------------------------------------------------------------------------| 
A|---------------------------------------------------------------------------| 
D|---------------------------------------------------------------------------| 

e|---------------------------------------------------------------------------| 
B|-3-3-3-3-3-3-3-3-5-5-5-5-5-5-5-5-7-7-7-7-7-7-7-7-8-8-8-8-8-8-8-8-----------| 
G|---------------------------------------------------------------------------| 
D|---------------------------------------------------------------------------| 
A|---------------------------------------------------------------------------| 
D|---------------------------------------------------------------------------| 

Chorus 

Post Chorus intro again like at 1:20. End on 

e|---------------------------------------------------------------------------| 
B|---------------------------------------------------------------------------| 
G|---------------------------------------------------------------------------| 
D|-0-------------------------------------------------------------------------| 
A|-0-------------------------------------------------------------------------| 
D|-0-------------------------------------------------------------------------| 



Feel free to send corrections, only my second ever tab so be kind.  


************************************ 

| /   slide up 
| \   slide down 
| h   hammer-on 
| p   pull-off 
| ~   vibrato 
| +   harmonic 
| x   Mute note 
| b   Bend 
| pb  Pre-bend 
| br  Bend release 
| pbr Pre-bend release 
| brb Bend release bend 

************************************ 
		  

See also:

tabs Deep Purple - Burn tabs Deep Purple - Lazy tabs Deep Purple - Deep Purple - Smoke On The Water tabs Deep Purple - Stormbringer tabs Deep Purple - Demon's Eye tabs Albert Hammond Jr - Holiday
e-chords

Other versions:

tabs Natives - The Horizon tabs Jack Johnson - The Horizon Has Been Defeated
auto scroll beats size up size down change color hide chords drawings
tab show chords e-chords YouTube Clip e-chords hide all tabs e-chords go to top tab

share