Natives

Can't Say No

Natives

tabs

by  CARLLUZ

save to print version add songbook text version e-mail correct tuner
chordsukulelecavacokeyboardtabbassdrumsharmonicaflute Guitar Pro
close

there isn't a video lesson for this song

chords

Can't Say No

	  		


Verse- This plays throughout the verse  
e|---------------------------------------------------------------------------| 
B|---------------------------------------------------------------------------| 
G|-4-4--4--4b-4----4--4--4b-4------------------------------------------------| 
D|-2-2--2--4b-4----2--2--4b-4------------------------------------------------| 
A|-4-4--4----------4--4------------------------------------------------------| 
E|---------------------------------------------------------------------------| 

Pre-Chorus (4x) 

e|---------------------------------------------------------------------------| 
B|---------------------------------------------------------------------------| 
G|---------------------------------------------------------------------------| 
D|-6-666--4-44444-2-222--4-44444---------------------------------------------| 
A|-4-444--2-22222-0-000--2-22222---------------------------------------------| 
E|---------------------------------------------------------------------------| 
P.M  ---    -----   ---    -----    


Chorus - Just alternate between these two until 'I can't say nooooo' 
e|---------------------------------------------------------------------------| 
B|---------------------------------------------------------------------------| 
G|-2-----4-------------------------------------------------------------------| 
D|-2-----4-------------------------------------------------------------------| 
A|-0-----2-------------------------------------------------------------------| 
E|---------------------------------------------------------------------------| 

When this plays- the strum rhythm should be easy enough to figure out.  
e|---------------------------------------------------------------------------| 
B|---------------------------------------------------------------------------| 
G|-6--4--2--4--6--4--2--4----------------------------------------------------| 
D|-6--4--2--4--6--4--2--4----------------------------------------------------| 
A|-4--2--0--2--4--2--0--2----------------------------------------------------| 
E|---------------------------------------------------------------------------| 
 | 
 | 
 | 
e|---------------------------------------------------------------------------| 
B|---------------------------------------------------------------------------| 
G|-4-4--4--4b-4----4--4--4b-4------------------------------------------------| 
D|-2-2--2--4b-4----2--2--4b-4------------------------------------------------| 
A|-4-4--4----------4--4------------------------------------------------------| 
E|---------------------------------------------------------------------------| 

The verse riff is played during this part too. 

Bridge 
e|---------------------------------------------------------------------------| 
B|---------------------------------------------------------------------------| 
G|-4---------------7---------------------------------------------------------| 
D|-4---------------7------------------7-----------------6--------------------| 
A|-2---------------5------------------7-----------------7--------------------| 
E|------------------------------------5-----------------4--------------------| 

e|---------------------------------------------------------------------------| 
B|---------------------------------------------------------------------------| 
G|-2---------------7---------------------------------------------------------| 
D|-2---------------7------------------7-------4--------4---------------------| 
A|-4---------------5------------------7-------7--------4---------------------| 
E|------------------------------------5-------4--------2---------------4/5---| 

then repeat this til the next Chorus 
e|---------------------------------------------------------------------------| 
B|---------------------------------------------------------------------------| 
G|---------------------------------------------------------------------------| 
D|-----77777777-99999999-----------------------------------------------------| 
A|-----77777777-99999999-----------------------------------------------------| 
E|-----55555555-77777777-----------------------------------------------------| 
P.M   |-----------------| 

'Nother Chorus and that's it. I didn't do the leads because they're very quiet in  
the mix. Any corrections are more than welcome.  


Verse 
Pre-Chorus 
Chorus 
Verse 
Pre-Chorus  
Chorus 
Bridge 
Chorus 

************************************ 

| /   slide up 
| \   slide down 
| h   hammer-on 
| p   pull-off 
| ~   vibrato 
| +   harmonic 
| x   Mute note 
| b   Bend 
| pb  Pre-bend 
| br  Bend release 
| pbr Pre-bend release 
| brb Bend release bend 

************************************ 
		  

See also:

tabs Deep Purple - Deep Purple - Smoke On The Water tabs Ira! - Dias de Luta (Intro - Acustico Mtv) tabs Deep Purple - Smoke on The Water (ver.3) tabs Deep Purple - Into The Fire tabs Deep Purple - When a Blind man cries tabs Deep Purple - Highway Star
e-chords

Other versions:

tabs Natives - Can't Say No
auto scroll beats size up size down change color hide chords drawings
tab show chords e-chords YouTube Clip e-chords hide all tabs e-chords go to top tab

share