Nasty Savage

Inferno

Nasty Savage

tabs

by  EDSOOLIVEIRA

save to print version add songbook text version e-mail correct tuner
chordsukulelecavacokeyboardtabbassdrumsharmonicaflute Guitar Pro
close

there isn't a video lesson for this song

chords

Inferno

	  		
Fig. 1 x4 
e|-----------------------------------|-----------------------------------| 
B|-----------------------------------|-----------------------------------| 
G|-----------------------------------|-----------------------------------| 
D|--------------------------4/5-4/5--|-----------------------------------| 
A|--------------------------2/3-2/3--|--------------------------3/4-3/4--| 
E|--000-000-000-000-000-000----------|--000-000-000-000-000-000-1/2-1/2--| 

Fig. 2 x1 
e|-----------------|-----------------|-----------------|---------------------| 
B|-----------------|-----------------|-----------------|---------------------| 
G|-----------------|-----------------|-----------------|---------------------| 
D|--4-5-7---5---2--|--4-5-7---5------|--4-5-7---5---2--|--4-5-7---5----------| 
A|--2-3-5-0-3-0-0--|--2-3-5-0-3-0-4--|--2-3-5-0-3-0-0--|--2-3-5-0-3-0-5p3p0--| 
E|-----------------|--------------2--|-----------------|---------------------| 
          .   .             .   . 

Fig. 3 x1 
e|----------------------------------|---------------------------------| 
B|----------------------------------|---------------------------------| 
G|----------------------------------|---------------------------------| 
D|---------------------------5-4-7--|--------------------------5-4-7--| 
A|---------------------------3-2-5--|--------------------------3-2-5--| 
E|--111-111-111-111-111-111---------|--111-111-111-111-111-111--------| 

e|----------------------------------------| 
B|----------------------------------------| 
G|----------------------------------------| 
D|--------------------------5-4-7--5-4-7--| 
A|--------------------------3-2-5--3-2-5--| 
E|--111-111-111-111-111-111---------------| 

Fig. 4 x1 (Verse) 
e|---------------------------------|---------------------------------| 
B|---------------------------------|---------------------------------| 
G|---------------------------------|---------------------------------| 
D|--------------------------5-4-7--|--------------------------5-4----| 
A|--------------------------3-2-5--|--------------------------3-2-5--| 
E|--000-000-000-000-000-000--------|--000-000-000-000-000-000-----3--| 

e|---------------------------------|----------------------------------------| 
B|---------------------------------|----------------------------------------| 
G|---------------------------------|----------------------------------------| 
D|--------------------------5-4-7--|--------------------------5-4----5-4----| 
A|--------------------------3-2-5--|--------------------------3-2-5--3-2-5--| 
E|--000-000-000-000-000-000--------|--000-000-000-000-000-000-----3------3--| 

Riff 1 x2 
e|-----------------------------------|-----------------------------------| 
B|-----------------------------------|-----------------------------------| 
G|-----------------------------------|-----------------------------------| 
D|------------------------------111--|------------------------------333--| 
A|----------------------333-222------|----------------------333-222------| 
E|--000-333-222-111-000--------------|--000-333-222-111-000--------------| 

Repeat Fig. 4 x1 
Repeat Riff 1 x2 

Riff 2 x4 (under solo) 
e|-------------------------------------------| 
B|-------------------------------------------| 
G|-------------------------------------------| 
D|-------------------------------------------| 
A|--4444-4444-3333-3333-4444-7777-6666-9999--| 
E|-------------------------------------------| 

Repeat Fig. 3 x1 
Repeat Fig. 4 x1 
Repeat Riff 1 x2 

Riff 3 x1 (under solo) 
e|-------------------------------------------|--------------------------------------| 
B|-------------------------------------------|--------------------------------------| 
G|-------------------------------------------|--------------------------------------| 
D|-------------------------------------------|--------------------------------------| 
A|------------2222-2222-5555-5555-1111-4444--|-------2222-2222-5555-5555------3333--| 
E|--0000-0000--------------------------------|--0000---------------------5555-------| 

e|-------------------------------------------|--------------------------------------| 
B|-------------------------------------------|--------------------------------------| 
G|-------------------------------------------|--------------------------------------| 
D|-------------------------------------------|--------------------------------------| 
A|------------2222-2222-5555-5555------------|-------2222-2222-5555-5555------3333--| 
E|--0000-0000---------------------1111-4444--|--0000---------------------5555-------| 

Repeat Fig. 1 x4 

Riff 3 x4 (under solo) 
e|-------------------------------------------| 
B|-------------------------------------------| 
G|-------------------------------------------| 
D|-------------------------------------------| 
A|----------------------3333-3333-2222-5555--| 
E|--2222-2222-2222-2222----------------------| 

Repeat Riff 1 x2 
Repeat Fig. 3 x1 (under solo) 
Repeat Fig. 4 x1 
Repeat Riff 1 x2 

end 
e|-----| 
B|-----| 
G|-----| 
D|--2--| 
A|--2--| 
E|--0--| 
		  

See also:

tabs Metallica - St. Anger tabs Metallica - Enter Sandman (versão 3) tabs Metallica - No Remorse tabs Metallica - Mama Said tabs Metallica - Enter Sandman tabs Metallica - Orion
e-chords

Other versions:

tabs Kreator - Inferno tabs Nasty Savage - Inferno tabs Symphony X - Inferno (Unleash The Fire) tabs Shaman - Inferno Veil
auto scroll beats size up size down change color hide chords drawings
tab show chords e-chords YouTube Clip e-chords hide all tabs e-chords go to top tab

share