Nasty Savage

Gladiator

Nasty Savage

tabs

by  EDSOOLIVEIRA

save to print version add songbook text version e-mail correct tuner
chordsukulelecavacokeyboardtabbassdrumsharmonicaflute Guitar Pro
close

there isn't a video lesson for this song

chords

Gladiator

	  		Fig. 1 x1 
e|------------------------------------------------------| 
B|------------------------------------------------------| 
G|------------------------------------------------------| 
D|----3-------------3-------------3-------------3-------| 
A|--2-1-----------2-1-----------2-1-----------2-1-------| 
E|--0------3-2-1--0------3-2-1--0------3-2-1--0----3-1--| 

Fig. 2 x3 
e|---------------------------------|-----------------------------------| 
B|---------------------------------|-----------------------------------| 
G|---------------------------------|-----------------------------------| 
D|------3-----4-----3-----4-----7--|------3-----4-----3-----4----------| 
A|------1-----2-----1-----2-----5--|------1-----2-----1-----2---3-5-3--| 
E|--0-0---0-0---0-0---0-0---0-0----|--0-0---0-0---0-0---0-0---0-1-3-1--| 
  
Fig. 2A x1 
e|---------------------------------|-------------------------------| 
B|---------------------------------|-------------------------------| 
G|---------------------------------|-------------------------------| 
D|------3-----4-----3-----4-----7--|------3-----4------------------| 
A|------1-----2-----1-----2-----5--|------1-----2-----3-2-1--------| 
E|--0-0---0-0---0-0---0-0---0-0----|--0-0---0-0---0-0-------3-2-1--| 

Repeat Fig. 2 x4 

Riff 1 x1 
e|-------------------|-------------------|-------------------|-------------------| 
B|-------------------|-------------------|-------------------|-------------------| 
G|-------------------|-------------------|--------3----------|-------------------| 
D|----------3-2-0-2--|-------------------|----2-3-----0-2-0--|------0---0-2---0--| 
A|----0-2-3----------|----0-2-3---1------|--0-------0--------|----3---3-----3----| 
E|--0----------------|--0-------3---2-5--|-------------------|--0----------------| 

Repeat Fig. 2 x4 

Fig. 3 x1 (Chorus) 
e|-------------------------------------------------|---------------| 
B|-------------------------------------------------|---------------| 
G|-------------------------------------------------|---------------| 
D|--------------7-8-------------7-------------7-8--|--5-4----------| 
A|--000-000-000-5-6-000-000-000-5-000-000-000-5-6--|--3-2-5-4-5-6--| 
E|-------------------------------------------------|------3-2-3-4--| 

e|-------------------------------------------------|---------------| 
B|-------------------------------------------------|---------------| 
G|-------------------------------------------------|---------------| 
D|--------------7-8-------------7-------------7-8--|------4-5------| 
A|--000-000-000-5-6-000-000-000-5-000-000-000-5-6--|--4-5-2-3-5-6--| 
E|-------------------------------------------------|--2-3-----3-4--| 

Repeat Fig. 1 x1 

Fill 1 x1 
e|--------------------------------------4h5h7-4h5h7--7h8h10-7h8h10--------------------------| 
B|--------------0h1h3-0h1h3-3h5h6-3h5h6-----------------------------------------------------| 
G|--1h2h4-1h2h4----------------------------------------------------1-2-4-2-1----------------| 
D|---------------------------------------------------------------------------3-2-0----------| 
A|---------------------------------------------------------------------------------3-2-0----| 
E|---------------------------------------------------------------------------------------4--| 

Riff 2 x2 
e|-----------------------|----------------------|-----------------------|-----------------------| 
B|-----------------------|----------------------|--------5--------------|--------5--------------| 
G|--------5--------------|--------5-------------|--6-4-6---6-4-6-4-6-4--|--6-4-6---6-4-6-4-6-3--| 
D|--7-5-7---7-5-7-5-7-5--|--7-5-7--7-5-7-5-7-4--|-----------------------|-----------------------| 
A|-----------------------|----------------------|-----------------------|-----------------------| 
E|-----------------------|----------------------|-----------------------|-----------------------| 

Fig. 4 x4 (under solo) 
e|-------------------------------------------| 
B|-------------------------------------------| 
G|------------------------------9-7----------| 
D|------------------------------7-5-7/8-7-5--| 
A|--000-000-000-000-000-000-000-----5/6-5-3--| 
E|-------------------------------------------| 

e|-------------------------------------------------------| 
B|-------------------------------------------------------| 
G|-------------------------------------------------------| 
D|--------------------------------------------------2-3--| 
A|--000-000-000-000-000-000-000-000-000-000-000-000-0-1--| 
E|-------------------------------------------------------| 

Fig. 5 x4 
e|---------------------------------|----------------------------------| 
B|---------------------------------|----------------------------------| 
G|---------------------------------|----------------------------------| 
D|------2-3-----2-3-----2-3-----5--|------2-3-----2-3-----2-3--3-2----| 
A|--0-0-0h1-0-0-0h1-0-0-0h1-0-0-3--|--0-0-0h1-0-0-0h1-0-0-0h1------0--| 
E|---------------------------------|----------------------------------| 

Repeat Fig. 4 x4 
Repeat Riff 1 x1 
Repeat Fig. 2 x4 
Repeat Fig. 3 x2 

Outro x1 
e|---------------| 
B|---------------| 
G|---------------| 
D|------4-5------| 
A|--4-5-2-3-5-6--| 
E|--2-3-----3-4--| 
		  

See also:

tabs Metallica - Enter Sandman (versão 3) tabs Metallica - Mama Said tabs Megadeth - In My Darkest Hour tabs Metallica - Welcome home(sanitarium) (Live) tabs Metallica - The Thing That Should Not Be tabs Metallica - Tuesday's Gone
e-chords

Other versions:

tabs Nasty Savage - Gladiator
auto scroll beats size up size down change color hide chords drawings
tab show chords e-chords YouTube Clip e-chords hide all tabs e-chords go to top tab

share