Nashville

Amor sem fim

Nashville

tabs

by  BCSBCS99

save to print version add songbook text version e-mail correct tuner
chordsukulelecavacokeyboardtabbassdrumsharmonicaflute Guitar Pro
close

there isn't a video lesson for this song

chords

Amor sem fim

	  		1° solo 
 
e|---------5--3h5--8-10-5---------------5---------5---5-8-5--3h5-3---| 
B|-----6-8----------------8-8-6-8---8-8---6---6-8---8--------------3-| 
G|-5-7--------------------------------------7------------------------| 
D|-------------------------------------------------------------------| 
A|-------------------------------------------------------------------| 
E|-------------------------------------------------------------------| 
 
e|---------5--3h5--8-10-5---------------5---------5---5-8-5--3h5-3-8-| 
B|-----6-8----------------8-8-6-8---8-8---6---6-8---8----------------| 
G|-5-7--------------------------------------7------------------------| 
D|-------------------------------------------------------------------| 
A|-------------------------------------------------------------------| 
E|-------------------------------------------------------------------| 
 
2° solo 
 
e|---------5--3h5--8-10-5---------------5---------5---5-8-5--3h5-3-8-| 
B|-----6-8----------------8-8-6-8---8-8---6---6-8---8----------------| 
G|-5-7--------------------------------------7------------------------| 
D|-------------------------------------------------------------------| 
A|-------------------------------------------------------------------| 
E|-------------------------------------------------------------------| 
 
e|--8--6--5--3-------------------------------------------------------| 
B|-------------------------------------------------------------------| 
G|-------------------------------------------------------------------| 
D|-------------------------------------------------------------------| 
A|-------------------------------------------------------------------| 
E|-------------------------------------------------------------------| 
 

		  

auto scroll beats size up size down change color hide chords drawings
tab show chords e-chords YouTube Clip e-chords hide all tabs e-chords go to top tab

share