Naruto

home > Naruto

The Rising Fighting Spirit – Naruto Tab

Naruto

Difficulty: ExpertExpert

by rodr%5Faeh

tuner correct add songbook print version text version save to e-mail
chordsukulelecavacokeyboardtabbassdrumsharmonicsflute Guitar Pro
chords

The Rising Fighting Spirit – Naruto

	  1ª parte 
|---------------------------|--------------|---------------------------------| 
|---------------------------|--------------|--13--15--13--12------------12---| 
|--9---9--11--12--11-----9--|--11--12--14--|-----------------14--12--11------| 
|-------------------12------|--------------|---------------------------------| 
|---------------------------|--------------|---------------------------------| 
|---------------------------|--------------|---------------------------------| 

2ª parte 
|---------------------------|--------------|---------------------------------| 
|---------------------------|--------------|--13--15--17--15-----------15----| 
|--9---9--11--12--11-----9--|--11--12--14--|-----------------17--16--14---16-| 
|--------------------12-----|--------------|---------------------------------| 
|---------------------------|--------------|---------------------------------| 
|---------------------------|--------------|---------------------------------| 

3ªparte 
|---------------------------------------|-----------------------------------------| 
|---------------------------------------|-----------------------------------------| 
|---------------------------------------|-----------------------------------------| 
|----9-7-9--9-----9-7-9--9-----9-7-9--9-|--9-9-7-7----------------------------7-9-| 
|--7------------7------------7----------|----------7-10--7-10--7-10-10-7-10-7-----| 
|---------------------------------------|-----------------------------------------| 

|---------------------------7-10-10-7-10--7-10-10-7-10--7-10-10-7-10-10-7-10-10-10-10-| 
|-------------7-10-10-7-10------------------------------------------------------------| 
|--7-9-9-7-9--------------------------------------------------------------------------| 
|-------------------------------------------------------------------------------------| 
|-------------------------------------------------------------------------------------| 
|-------------------------------------------------------------------------------------| 

4ªparte 
|--------------------------------|----------------------------------| 
|----------------15-13--12-10-12-|-17--15-13-12----10--10-12-13-----| 
|--12--11-12-14------------------|--------------12------------------| 
|--------------------------------|----------------------------------| 
|--------------------------------|----------------------------------| 
|--------------------------------|----------------------------------| 

|--------------------------------|----------------------------------| 
|----------------15-13--12-10-12-|-17--15-13-12-10------------------| 
|--12--11-12-14------------------|-----------------12-9-9-9-9-------| 
|--------------------------------|----------------------------------| 
|--------------------------------|----------------------------------| 
|--------------------------------|----------------------------------| 

Essa música foi tirada de ouvido, caso haja algum erro corrijam por favor. 
	  

there isn't a video lesson for this song

request
Search
auto scroll beats size up size down change color hide chords drawings
tab show chords e-chords YouTube Clip e-chords hide all tabs e-chords go to top tab