Naruto

home > Naruto

Oh! Student And Teacher Affection Tab

Naruto

Difficulty: ExpertExpert

by rodr%5Faeh

tuner correct add songbook print version text version save to e-mail
chordsukulelecavacokeyboardtabbassdrumsharmonicsflute Guitar Pro
chords

Oh! Student And Teacher Affection

	  \-slide 
b-bend 

|-------12-10-12-|-----------------|--------------|---------------------| 
|-9\11-----------|-9b11--9-7-9-7-9-|--------------|---------------------| 
|----------------|-----------------|-\11--12-11-9-|-9-11-12---14-12-14--| 
|----------------|-----------------|--------------|---------------------| 
|----------------|-----------------|--------------|---------------------| 
|----------------|-----------------|--------------|---------------------| 

|-------12-10-12-|-----------------|--------------|---------------------| 
|-9\11-----------|-9b11--9-7-9-7-9-|--------------|---------------------| 
|----------------|-----------------|-\11--12-11-9-|-11-12-11---7-11-9---| 
|----------------|-----------------|--------------|---------------------| 
|----------------|-----------------|--------------|---------------------| 
|----------------|-----------------|--------------|---------------------| 
	  

Search Paypal
auto scroll beats size up size down change color hide chords drawings
tab show chords e-chords YouTube Clip e-chords hide all tabs e-chords go to top tab