Naruto Shippuuden

Yuukimaru's Theme Song

Naruto Shippuuden

tabs

by  MARCNAGEL

save to print version add songbook text version e-mail correct tuner
chordsukulelecavacokeyboardtabbassdrumsharmonicaflute Guitar Pro
close

there isn't a video lesson for this song

chords

Yuukimaru's Theme Song

	  		
E|------------------------0--|--------------------------| 
B|------------1--3-----------|--------------------------| 
G|*--2-----2-----------2-----|--2-----------2-----------| 
D|*-----2-----2-----2--------|--------3-----------3-----| 
A|---0-----------------------|-----3-----3-----3-----3--| 
E|---------------------------|--1-----------------------| 


E|-----------------------3--|--0-----------0-----0--3--| 
B|-----------1--3-----------|--------1-----------1-----| 
G--2-----0-----4-----0-----|-----0-----0-----0--------| 
D|-----0-----0-----0--------|--------------------------| 
A|--------------------------|--3-----------------------| 
E|--3-----------------------|--------------------------| 


E|--5-------------------3--0--|--0-----------------------| 
B|----------------------------|--------------1-----------| 
G|----------------2-----------|--------2-----------2-----| 
D|---------3------------3-----|-----2-----2-----2-----2--| 
A|-----3------3------3--------|--0-----------------------| 
E|--5-------------------------|--------------------------| 

  

E|-----------0--------------|--------------------------| 
B|--3-----------0--------1--|--------------1-----------| 
G|--------0-----2-----0-----|--2-----2-----------2-----| 
D|-----0-----0-----0--------|-----2-----2-----2-----2--| 
A|--------------------------|--0-----------------------| 
E|--3-----------------------|--------------------------| 

              

E|---------------------------||-------------------|-------------------| 
B|--------0-----1------------||-------------------|-------------------| 
G|--------------------2------||--2----------------|-------------------| 
D|-----2-----2-----2-----2---||--2----------------|-------------------| 
A|--0------------------------||--0----------------|-------------------| 
E|---------------------------||-------------------|-------------------| 
		  

See also:

tabs Naruto Shippuuden - Yuukimaru's Theme Song tabs Naruto Shippuuden - Shirohae tabs Naruto Shippuuden - Naruto Shippuden Accel Ending
e-chords

Other versions:

tabs Naruto Shippuuden - Yuukimaru's Theme Song
auto scroll beats size up size down change color hide chords drawings
tab show chords e-chords YouTube Clip e-chords hide all tabs e-chords go to top tab

share