Naruto Shippuuden

Naruto Shippuden Accel Ending

Naruto Shippuuden

tabs

by  VICTBORGES

save to print version add songbook text version e-mail correct tuner
chordsukulelecavacokeyboardtabbassdrumsharmonicaflute Guitar Pro
close

there isn't a video lesson for this song

chords

Naruto Shippuden Accel Ending

	  		E|---2---4---5-------4---2---0-------0---2-------0-------2----| 
B|---------------2---------------2---2------------------------| 
G|-------------------2-----------------------2-------2--------| 
D|-----------4---------------------------0--------------------| 
A|------------------------------------------------------------| 
E|---------------------------0--------------------------------| 

E|---------------0---2---4---0---2-------4-------5------------| 
B|---0---2---3---3-------2---2---2---2-------2----------------| 
G|-----------4------------------------------------------------| 
D|------------------------------------------------------------| 
A|------------------------------------------------------------| 
E|------------------------------------------------------------| 

E|-------------------2---------------------------------------2| 
B|---2---0---2-------2---2---0-----------------------2--------| 
G|-------------------------------1---2---1---4----------------| 
D|-----------0-----------------------2-------4---4-------4----| 
A|---------------0-----------4--------------------------------| 
E|------------------------------------------------------------| 

E|---------------2---2-------0---2-------4-------5------------| 
B|---2---2---0-----------0-----------2-------2----------------| 
G|-----------2------------------------------------------------| 
D|-------0-------0---2-----------4----------------------------| 
A|------------------------------------------------------------| 
E|---------------------------0--------------------------------| 
		  

See also:

tabs Naruto Shippuuden - Naruto Shippuden Accel Ending tabs Naruto Shippuuden - Shirohae tabs Naruto Shippuuden - Yuukimaru's Theme Song
e-chords

Other versions:

tabs Naruto Shippuuden - Naruto Shippuden Accel Ending
auto scroll beats size up size down change color hide chords drawings
tab show chords e-chords YouTube Clip e-chords hide all tabs e-chords go to top tab

share