Nargaroth

Rasluka

Nargaroth

tabs

by  PAULANTUNES

save to print version add songbook text version e-mail correct tuner
chordsukulelecavacokeyboardtabbassdrumsharmonicaflute Guitar Pro
close

there isn't a video lesson for this song

chords

Rasluka

	  		 

Rythm A: 
e|------------------------------------------------------------------------------| 
B|------------------------------------------------------------------------------| 
G|------------------------------------------------------------------------------| 
D|2---2---2-2---5--4-4---2-2--2-2-----------------------------------------------| 
A|2---2---2-2---5--4-4---2-2--2-2-----------------------------------------------| 
E|0---0---0-0---3--2-2---0-0--0-0-----------------------------------------------| 

Rythm B: 
e|------------------------------------------------------------------------------| 
B|------------------------------------------------------------------------------| 
G|------------------------------------------------------------------------------| 
D|2---2---2-2---5--4-4---2-2--5-2-----------------------------------------------| 
A|2---2---2-2---5--4-4---2-2--5-2-----------------------------------------------| 
E|0---0---0-0---3--2-2---0-0--3-0-----------------------------------------------| 

Rythm C: 
e|------------------------------------------------------------------------------| 
B|------------------------------------------------------------------------------| 
G|------------------------------------------------------------------------------| 
D|77777777\2222/77777777/99999999777777779999/1010101010101010/1212121212121212\| 
A|00000000\0000/00000000/77777777777777777777/8 8 8 8 8 8 8 8 /1010101010101012\| 
E|------------------------------------------------------------------------------| 

e|------------------------------------------------------------------------------| 
B|------------------------------------------------------------------------------| 
G|------------------------------------------------------------------------------| 
D|10101010\99999999/10101010\9999-----------------------------------------------| 
A|8 8 8 8 \77777777/8 8 8 8 \7777-----------------------------------------------| 
E|------------------------------------------------------------------------------| 

Rythm D: 
e|------------------------------------------------------------------------------| 
B|------------------------------------------------------------------------------| 
G|------------------------------------------------------------------------------| 
D|77777777\2222/555555555555/10101010\9999\77777777\2222/55555555/10101010\9999-| 
A|00000000\0000/333333333333/8 8 8 8 \7777\00000000\0000/33333333/8 8 8 8 \7777-| 
E|------------------------------------------------------------------------------| 

Solo 1: 
e|------------------------------------------------------------------------------| 
B|------------------------------------------------------------------------------| 
G|9---9---9-9---12---11-11---9-9---9-9------------------------------------------| 
D|------------------------------------------------------------------------------| 
A|------------------------------------------------------------------------------| 
E|------------------------------------------------------------------------------| 

Solo 2: 
e|------------------------------------------------------------------------------| 
B|12---12---12-12---15---14-14---12-12---12-12----------------------------------| 
G|------------------------------------------------------------------------------| 
D|------------------------------------------------------------------------------| 
A|------------------------------------------------------------------------------| 
E|------------------------------------------------------------------------------| 



************************************ 

| /   slide up 
| \   slide down 
| h   hammer-on 
| p   pull-off 
| ~   vibrato 
| +   harmonic 
| x   Mute note 
| b   Bend 
| pb  Pre-bend 
| br  Bend release 
| pbr Pre-bend release 
| brb Bend release bend 

************************************ 
		  

See also:

tabs Ira! - Poço de Sensibilidade (Solo - Acustico Mtv) tabs Deep Purple - Smoke On The Water tabs Deep Purple - Smoke on the water (intro) tabs Ira! - Eu Quero Sempre Mais (Com Pitty, intro) tabs Deep Purple - Smoke on the Water (ver. 2) tabs Deep Purple - Knocking At Your Back Door
e-chords

Other versions:

tabs Nargaroth - Rasluka
auto scroll beats size up size down change color hide chords drawings
tab show chords e-chords YouTube Clip e-chords hide all tabs e-chords go to top tab

share