Myslovitz

Sprzedawcy marzeń

Myslovitz

tabs Expert expert

by  DREAMSELLER0

save to print version add songbook text version e-mail correct tuner
chordsukulelecavacokeyboardtabbassdrumsharmonicaflute Guitar Pro
close

there isn't a video lesson for this song

chords

Sprzedawcy marzeń

	  		Sprzedawcy marzeń 
 
 
INTRO: 
E----------------------------------------------------------- 
H----------------------------------------------------------- 
G-11-11-11--11--11-11-12--12--11-11-11--11------------------ 
D---9--9--12--12--9--9--12--12--9--9--12--12-11-11-12-12---- 
A----------------------------------------------9--9--10-10-- 
E----------------------------------------------------------- 
  h     D       h     G       h     D      F#m   G 
 
 
RIFF A: (x1) (play it during the verses) 
e--------14-----14----14-----9---10--9------------------ 
B------15-----15----15----10--10-------10--------------- 
G----16-----16-----16---11----------------11------------ 
D------------------------------------------------------- 
A------------------------------------------------------- 
E------------------------------------------------------- 
 
 
h     D              h            G 
Jaki piękny jest ten świat, tylko czarne, białe 
h        D              F#m   G 
To jest proste, widzę - wiem 
Już tu siedzę jakiś czas, lubię dużo wiedzieć 
I nie wzrusza mnie już nic 
 
RIFF B: 
E------14---17-14--------     E------9---10-9----------- 
H----15--15-------15-----     H----10-10-----10--------- 
G--16----------------16--     G--11-------------11------ 
D------------------------ x3  D------------------------- 
A -----------------------     A------------------------- 
E -----------------------     E------------------------- 
 
 
 
Ty widzisz we mnie coś, nie ma ideału 
A miłość ślepa jest 
I chyba nie wiesz, że telewizja kłamie 
Nie wszystko możesz mieć 
 
 
     G         e           A                C#m 
     Nie mogę zrobić nic, sterowany jestem wciąż 
     Nie musisz starać się, przecież jesteś też jak ja 
 
 
RIFF B (x2) 
 
 
Powiedzieć coś bym chciał, mam pustkę w głowie 
Zgubiłem znowu się 
I nie chce mi się nic, jestem już zmęczony 
To nie był dobry dzień 
 
 
     Nie mogę zrobić nic, sterowany jestem wciąż 
     Nie musisz starać się, przecież jesteś też jak ja 
     G        e             A              C#m        G 
     Nie mogę zrobić nic, sterowany jestem wciąż 
 
 
SOLO: 
E---------------------------------------------------------------- 
H---------------------------------------------------------------- 
G-9-9h11-11-11--11-11-11-11-----9-9h11--11-11--11-11-11-11/14-14- 
D---------------------------9-9---------------------------------- 
A---------------------------------------------------------------- 
E---------------------------------------------------------------- 
 
 
E-------------------------------------------------------------- 
H-------------------------------------------------------------- 
G--9-9h11--11-11--11-11-11-11---------------------------------- 
D-----------------------------9-9h11-11-11-11/12-12///----------- 
A-------------------------------------------------------------- 
E-------------------------------------------------------------- 
OUTRO: 
RIFF B x2 
 
Have Fun :) 

		  

Full key step upFull key step up
Half key step upHalf key step up
Half key step downHalf key step down
Full key step downFull key step down
hide glossary

See also:

tabs Myslovitz - Sprzedawcy marzeń tabs Ewa Farna - Nie Przegap tabs Myslovitz - Ch?opcy
e-chords

Other versions:

tabs Myslovitz - Sprzedawcy marzeń
auto scroll beats size up size down change color hide chords drawings
tab show chords e-chords YouTube Clip e-chords hide all tabs e-chords go to top tab

share