My Chemical Romance

home > My Chemical Romanc...

Teenagers Tab

My Chemical Romance

Difficulty: BeginnerBeginner

by shredderjr

tuner correct add songbook print version text version save to e-mail
chordsukulelecavacokeyboardtabbassdrumsharmonicsflute Guitar Pro
chords

Teenagers

Year: 2006 - Album: The Black Parade

  		 _______________ 
|STANDARD TUNING| 
 ^^^^^^^^^^^^^^^ 
PM.....=palm mute 
X=finger mute (only touching it with your finger) 
/=slide up 
\=slide down 
H=hammer on 
P=pull off 
B=bend 
 __________ 
|(guitar 1)| 
 ^^^^^^^^^^ 
VERSE  
e|-----------------0-|-----------------0-| 
B|-----------------0-|-----------------0-| 
G|-------------------|-------------------| 
D|-------------------|-------------------| 
A|-2-2-4-2-----------|-2-2-4-2-----------| 
E|-0-0-0-0---0-3/4---|-0-0-0-0---0-3/4---| 
 PM...........       PM........... 

e|-----------------|---------------------| 
B|-----------------|---------------------| 
G|-----------------|---------------------| 
D|-----------------|-------------------7-| 
A|-2-2-4-4-5-5-4-4-|-9-9-11-9----------7-| 
E|-0-0-0-0-0-0-0-0-|-7-7-7--7---7-9/11---| 
 PM............... PM.......... 

e|-------------------|------------------0-| 
B|-------------------|------------------0-| 
G|-------------------|--------------------| 
D|-----------------5-|--------------------| 
A|-7-7-9-7---------5-|-2-2-4-2------------| 
E|-5-5-5-5---5-7/9---|-0-0-0-0----0-3/4---| 
 PM...........       PM............ 

e|----------------------| 
B|----------------------| 
G|----------------------| 
D|----------------------| 
A|-9-9-11-9-9-9-11-9--2-| 
E|-7-7-7--7-7-7-7--7--0-| 
 PM................. 
   
FILL 
e|-----4-------3-------2----0-| 
B|-------0-------0-------0--0-| 
G|-3/4-----4\3-----3\2------1-| 
D|----------------------------| 
A|----------------------------| 
E|----------------------------| 
(this sounds a bit funny if you dont play it at speed) 

Chorus 
e|--------------------------------| 
B|--------------------------------| 
G|-9-9-8-9--4-6-7--9-9-8-9--4-6-7-| 
D|-X-X-X-X--X-X-X--X-X-X-X--X-X-X-| 
A|-7-7-6-7--2-4-5--7-7-6-7--2-4-5-| 
E|--------------------------------| 
  
e|--------------------------------------------| 
B|--------------------------------------------| 
G|-9-9-9-9--13-13-13-13--11-11-13-11--11-9-11-| 
D|-X-X-X-X--X--X--X--X---X--X--X--X---X--X-X--| 
A|-7-7-7-7--11-11-11-11--9--9--11-9---9--7-9--| 
E|--------------------------------------------| 

e|--------------------------------------| 
B|--------------------------------------| 
G|-14-14-14-14--14-13-11--11-11-11/14-9-| 
D|-X--X--X--X---X--X--X---X--X--X--X--X-| 
A|-12-12-12-12--12-11-9---9--9--9-/11-7-| 
E|--------------------------------------| 


e|---------------------| 
B|---------------------| 
G|-8-8-9-11-11-13-11-9-| 
D|-X-X-X-X--X--X--X--X-| 
A|-6-6-7-9--9--11-9--7-| 
E|---------------------| 

SOLO 
e|-------| 
B|-------| 
G|-------| 
D|-------| 
A|-------| 
E|-0-2-4-| 

e|---------------------------------| 
B|---------------------------------| 
G|---------------------------------| 
D|---------------------------------| 
A|-7-7-9-7-7-7-9-7-7-7-9-7-7-7-9-7-| 
E|-5-5-5-5-5-5-5-5-5-5-5-5-5-5-5-5-| 

e|-------------------------------------------------| 
B|-------------------------------------------------| 
G|-------------------------------------------------| 
D|-------------------------------------------------| 
A|-14-14-16-14-14-14-16-14-14-14-16-14-14-14-16-14-| 
E|-12-12-12-12-12-12-12-12-12-12-12-12-12-12-12-12-| 

e|---------------------------------| 
B|---------------------------------| 
G|---------------------------------| 
D|---------------------------------| 
A|-7-7-9-7-7-7-9-7-7-7-9-7-7-7-9-7-| 
E|-5-5-5-5-5-5-5-5-5-5-5-5-5-5-5-5-| 

e|-------------------------------------| 
B|-------------------------------------| 
G|-------------------------------------| 
D|-------------------------------------| 
A|-9-9-11-9-9-9-11-9-9-9-11-9-9-9-11-9-| 
E|-7-7-7--7-7-7-7--7-7-7-7--7-7-7-7--7-| 

END 
e|-----4-------3-------2----0-| 
B|-------0-------0-------0--0-| 
G|-3/4-----4\3-----3\2------1-| 
D|----------------------------| 
A|----------------------------| 
E|----------------------------| 
 ________ 
|guitar 2| 
 ^^^^^^^^ 
VERSE (not first) 
e|---------------------------------------------| 
B|---------------------------------------------| 
G|---------------------------------------------| 
D|--------------------------11-11-11--9-9-11-9-| 
A|-2-2-4-2--2-2-4-2--2-2-2--11-11-11--9-9-11-9-| 
E|-0-0-0-0--0-0-0-0--0-0-0---------------------| 

e|----------------------------------| 
B|----------------------------------| 
G|----------------------------------| 
D|-12-12-12-12--12-11-9--9-9-9/11-7-| 
A|-12-12-12-12--12-11-9--9-9-9/11-7-| 
E|----------------------------------| 

e|------------------| 
B|------------------| 
G|------------------| 
D|-6-6-7-9-9-11-9-7-| 
A|-6-6-7-9-9-11-9-7-| 
E|------------------| 

Chorus 
e|---------------------------------| 
B|---------------------------------| 
G|---------------------------------| 
D|---------------------------------| 
A|-7-7-9-7-7-7-9-7-7-7-9-7-7-7-9-7-| 
E|-5-5-5-5-5-5-5-5-5-5-5-5-5-5-5-5-| 

e|-------------------------------------------------| 
B|-------------------------------------------------| 
G|-------------------------------------------------| 
D|-------------------------------------------------| 
A|-14-14-16-14-14-14-16-14-14-14-16-14-14-14-16-14-| 
E|-12-12-12-12-12-12-12-12-12-12-12-12-12-12-12-12-| 

e|---------------------------------| 
B|---------------------------------| 
G|---------------------------------| 
D|---------------------------------| 
A|-7-7-9-7-7-7-9-7-7-7-9-7-7-7-9-7-| 
E|-5-5-5-5-5-5-5-5-5-5-5-5-5-5-5-5-| 

e|-------------------------------------| 
B|-------------------------------------| 
G|-------------------------------------| 
D|-------------------------------------| 
A|-9-9-11-9-9-9-11-9-9-9-11-9-9-9-11-9-| 
E|-7-7-7--7-7-7-7--7-7-7-7--7-7-7-7--7-| 

SOLO 
e|-5-------5--5-5-------5--12----------12-| 
B|-5-7-5H6-5--5-5-7-5H6-5--12-14-12H13-12-| 
G|---7-5H6--------7-5H6-------14-12H13----| 
D|----------------------------------------| 
A|----------------------------------------| 
E|----------------------------------------| 

e|------------------------------------------------| 
B|-15B-15B-15-12----------------------------------| 
G|---------------14-12------14-12-----------------| 
D|---------------------14-12------14-12-----------| 
A|--------------------------------------14-12-14B-| 
E|------------------------------------------------| 

e|-5-------5--5-5-------5-| 
B|-5-7-5H6-5--5-5-7-5H6-5-| 
G|---7-5H6--------7-5H6---| 
D|------------------------| 
A|------------------------| 
E|------------------------| 

e|-7-7---7-7---7-7---7-7---7-7----12B-| 
B|-7-7---7-7---7-7---7-7---7-7--------| 
G|-----9B----9B----9B----9B----9B-----| 
D|------------------------------------| 
A|------------------------------------| 
E|------------------------------------| 

 _________________________________________________________________ 
|well thats my first tab and i think it 100% right - hope it helps| 
 ^^^^^^^^^^^^^^^^^^^^^^^^^^^^^^^^^^^^^^^^^^^^^^^^^^^^^^^^^^^^^^^^^ 
	  

Search Paypal
auto scroll beats size up size down change color hide chords drawings
tab show chords e-chords YouTube Clip e-chords hide all tabs e-chords go to top tab