My Chemical Romance

home > My Chemical Romanc...

My Way Home Is Through You Tab

My Chemical Romance

Difficulty: ExpertExpert

by Nick+D

tuner correct add songbook print version text version save to e-mail
chordsukulelecavacokeyboardtabbassdrumsharmonicsflute Guitar Pro
chords

My Way Home Is Through You

Year: 2007 - Album: Live and Rare

  		I. INTRO 

Gtr  
e|-----------------<5>~~--| 
B|-------------<7>--------| 
G|------------------------| 
D|------------------------| 
A|------<7>~~-------------| 
E|--<5>-------------------| 

Gtr 2 (not sure) 
e|------------------------------------|-----------------------------------| 
B|------------------------------------|-----------------------------------| 
G|--11111111111111\6-6-6-6-6-6-6-6-6--|--7-7-7-7-7-7-7-7-7/9-9-9-9-9-9-9--| 
D|---x-x-x-x-x-x-x-x-x-x-x-x-x-x-x-x--|--x-x-x-x-x-x-x-x-x-x-x-x-x-x-x-x--| 
A|---9-9-9-9-9-9-9\4-4-4-4-4-4-4-4-4--|--5-5-5-5-5-5-5-5-5/7-7-7-7-7-7-7--| 
E|------------------------------------|-----------------------------------| 


II. VERSE 1 

Both guitars 
e|-----------------------------------|-----------------------------------|2x 
B|-----------------------------------|-----------------------------------| 
G|--4-4-4-4-4-4-4-4------------------|--7-7-7-7-7-7-7-7------------------| 
D|--4-4-4-4-4-4-4-4-4-4-4-4-4-4-4-4--|--7-7-7-7-7-7-7-7-5-5-5-5-4-4-4-4--| 
A|--2-2-2-2-2-2-2-2-4-4-4-4-4-4-4-4--|--5-5-5-5-5-5-5-5-5-5-5-5-4-4-4-4--| 
E|------------------2-2-2-2-2-2-2-2--|------------------3-3-3-3-2-2-2-2--| 

Then, Gtr 1 changes to this (while Gtr 2 continues ^^^ riff): 
e|-----------------------------------|-----------------------------------| 
B|-----------------------------------|-----------------------------------| 
G|--4-4-4-4-4-4-4-4-7-7-7-7-7-7-7-7--|--9-9-9-9-9-9-9-9-7-7-7-7-6-6-6-6--| 
D|--x-x-x-x-x-x-x-x-x-x-x-x-x-x-x-x--|--x-x-x-x-x-x-x-x-x-x-x-x-x-x-x-x--| 
A|--2-2-2-2-2-2-2-2-5-5-5-5-5-5-5-5--|--7-7-7-7-7-7-7-7-5-5-5-5-4-4-4-4--| 
E|-----------------------------------|-----------------------------------| 
(continued) 
e|-----------------------------------|-------------------------------------| 
B|-----------------------------------|-------------------------------------| 
G|--4-4-4-4-4-4-4-4-7-7-7-7-7-7-7-7--|--9-9-9-9-9-9-9-9/121212\1111111111--| 
D|--x-x-x-x-x-x-x-x-x-x-x-x-x-x-x-x--|--x-x-x-x-x-x-x-x--x-x-x--x-x-x-x-x--| 
A|--2-2-2-2-2-2-2-2-5-5-5-5-5-5-5-5--|--7-7-7-7-7-7-7-7/101010\-9-9-9-9-9--| 
E|-----------------------------------|-------------------------------------| 


III. Chorus 

Gtr 1 
e|---------------------------|------------------------------------|2x 
B|---------------------------|------------------------------------|then 
G|--7-7----1111111111111111--|--9-9-9-9-9-9-9-9/11111111\9-9-9-9--|below 
D|--x-x-----x-x-x-x-x-x-x-x--|--x-x-x-x-x-x-x-x--x-x-x-x-x-x-x-x--| 
A|--5-5-----9-9-9-9-9-9-9-9--|--7-7-7-7-7-7-7-7/-9-9-9-9\7-7-7-7--| 
E|---------------------------|------------------------------------| 
Gtr 1 – first ending 
e|------------------------------------|------------------------------------| 
B|------------------------------------|------------------------------------| 
G|--7-7-7-7-7-7-7-7/1111111111111111--|--9-9-9-9-9-9-9-9/12121111\9-9-9-9--| 
D|--x-x-x-x-x-x-x-x--x-x-x-x-x-x-x-x--|--x-x-x-x-x-x-x-x--x-x-x-x-x-x-x-x--| 
A|--5-5-5-5-5-5-5-5/-9-9-9-9-9-9-9-9--|--7-7-7-7-7-7-7-7/1010-9-9\7-7-7-7--| 
E|------------------------------------|------------------------------------| 
Gtr 1 – second ending 
e|------------------------------------|------------------------------------| 
B|------------------------------------|------------------------------------| 
G|--7-7-7-7-7-7-7-7/1111111111111111--|--9-9-9-9-9-9-9-9/11111111\9-9-9-9--| 
D|--x-x-x-x-x-x-x-x--x-x-x-x-x-x-x-x--|--x-x-x-x-x-x-x-x--x-x-x-x-x-x-x-x--| 
A|--5-5-5-5-5-5-5-5/-9-9-9-9-9-9-9-9--|--7-7-7-7-7-7-7-7/-9-9-9-9\7-7-7-7--| 
E|------------------------------------|------------------------------------| 

Gtr 2 
e|--------------------------|-----------------------------------| 
B|--------------------------|-----------------------------------| 
G|--4-4---------------------|-----------------------------------| 
D|--4-4----4-4-4-4-4-4-4-4--|--5-5-5-5-5-5-5-5-5-5-5-5-5-5-5-5--| 
A|--2-2----4-4-4-4-4-4-4-4--|--5-5-5-5-5-5-5-5-5-5-5-5-5-5-5-5--| 
E|---------2-2-2-2-2-2-2-2--|--3-3-3-3-3-3-3-3-3-3-3-3-3-3-3-3--| 
(continued) 
e|-----------------------------------|-----------------------------------|2x 
B|-----------------------------------|-----------------------------------| 
G|--4-4-4-4-4-4-4-4------------------|-----------------------------------| 
D|--4-4-4-4-4-4-4-4-4-4-4-4-4-4-4-4--|--5-5-5-5-5-5-5-5-5-5-5-5-5-5-5-5--| 
A|--2-2-2-2-2-2-2-2-4-4-4-4-4-4-4-4--|--5-5-5-5-5-5-5-5-5-5-5-5-5-5-5-5--| 
E|------------------2-2-2-2-2-2-2-2--|--3-3-3-3-3-3-3-3-3-3-3-3-3-3-3-3--| 


IV. POST - Chorus 

Both guitars 
e|-----------------------------------|-----------------------------------| 
B|-----------------------------------|-----------------------------------| 
G|--4-4-4-4-4-4-4-4------------------|--7-7-7-7-7-7-7-7------------------| 
D|--4-4-4-4-4-4-4-4-4-4-4-4-4-4-4-4--|--7-7-7-7-7-7-7-7-5-5-5-5-4-4-4-4--| 
A|--2-2-2-2-2-2-2-2-4-4-4-4-4-4-4-4--|--5-5-5-5-5-5-5-5-5-5-5-5-4-4-4-4--| 
E|------------------2-2-2-2-2-2-2-2--|------------------3-3-3-3-2-2-2-2--| 

Then Gtr 1 changes to this (while Gtr 2 continues ^^^ riff): 
e|------------------------------------|------------------------------------| 
B|------------------------------------|------------------------------------| 
G|--4-4-4-4-4-4-4-4/1010101010101010--|--7-7-7-7-7-7-7-7-7/9-9-9/10101010--| 
D|--x-x-x-x-x-x-x-x--x-x-x-x-x-x-x-x--|--x-x-x-x-x-x-x-x-x-x-x-x--x-x-x-x--| 
A|--2-2-2-2-2-2-2-2/-8-8-8-8-8-8-8-8--|--5-5-5-5-5-5-5-5-5/7-7-7/-8-8-8-8--| 
E|------------------------------------|------------------------------------| 


V. VERSE 2 

Gtr 1 
e|----------------------|--------------------------------| 
B|----------------------|--------------------------------| 
G|--4~~~~---------------|--------------------------------| 
D|--4~~~~---------------|-----------------//pickslide//--| 
A|--2~~~~---------------|--------------------------------| 
E|----------------------|--------------------------------| 
Gtr 2 (left speaker) 
e|---------------18-19--|--18----------------------------| 
B|---------18~~---------|-----18-------------------------| 
G|------16--------------|--------16----------------------| 
D|--/16-----------------|-----------16~~--//pickslide//--| 
A|----------------------|--------------------------------| 
E|----------------------|--------------------------------| 
(I think while in that ^^^ part, there’s another guitar playing in the right speaker. Please comment here.) 

Both guitars 
e|-----------------------------------|--------------------------------|2x 
B|-----------------------------------|--------------------------------| 
G|-----------------------------------|--------------------------------| 
D|--4-4-4-4-4-4-4-4------------------|--7-7-7-7-7-7-7-7-----5------4--| 
A|--2-2-2-2-2-2-2-2-4-4-4-4-4-4-4-4--|--5-5-5-5-5-5-5-5-5-5-5--4-4-4--| 
E|------------------2-2-2-2-2-2-2-2--|------------------3-3-3--2-2-2--| 
PM| . . . . . . . . . . . . . . . .  |  . . . . . . . . . .    . .    | 

(On the second repeat, another guitar  plays something again. Please correct also this part.) 

{REPEAT Chorus} 

VI. BRIDGE 

Gtr 1 
e|-------------------------------|-------------------------------| 
B|-------------------------------|-------------------------------| 
G|--------------4-4-4--4-4-4--4--|-------------------------------| 
D|--------------x-x-x--x-x-x--x--|--5-5--5-5-5--5-2-2--2-2-2--2--| 
A|--------------2-2-2--2-2-2--2--|--x-x--x-x-x--x-x-x--x-x-x--x--| 
E|-------------------------------|--3-3--3-3-3--3-0-0--0-0-0--0--| 
Gtr 2 
e|-------------------------------|-------------------------------| 
B|-------------------------------|-------------------------------| 
G|--4-4--4-4-4-------------------|-------------------------------| 
D|--x-x--x-x-x----------------5--|--5-5--5-5-5--5-2-2--2-2-2--2--| 
A|--2-2--2-2-2----------------x--|--x-x--x-x-x--x-x-x--x-x-x--x--| 
E|----------------------------3--|--3-3--3-3-3--3-0-0--0-0-0--0--| 

Both guitars 
e|-------------------------------|-------------------------------|repeat 
B|-------------------------------|-------------------------------|several 
G|--4-4--4-4-4--4-4-4--4-4-4--4--|-------------------------------|times 
D|--x-x--x-x-x--x-x-x--x-x-x--x--|--5-5--5-5-5--5-2-2--2-2-2--2--| 
A|--2-2--2-2-2--2-2-2--2-2-2--2--|--x-x--x-x-x--x-x-x--x-x-x--x--| 
E|-------------------------------|--3-3--3-3-3--3-0-0--0-0-0--0--| 

After a while, Gtr 1 changes to this: 
e|-------------------------------|-------------------------------| 
B|-------------------------------|-------------------------------| 
G|--4-4--4-4-4--4-4-4--4-4-4--4--|--4-4--4-4-4--4-4-4--4-4-4--4--| 
D|--x-x--x-x-x--x-x-x--x-x-x--x--|--x-x--x-x-x--x-x-x--x-x-x--x--| 
A|--2-2--2-2-2--2-2-2--2-2-2--2--|--2-2--2-2-2--2-2-2--2-2-2--2--| 
E|-------------------------------|-------------------------------| 
(continued) 
e|-------------------------------|---------------------------------|repeat 
B|-------------------------------|---------------------------------| 
G|--4-4--4-4-4--4-7-7--7-7-7--4--|--4-4--4-4-4--4-7-7-7-7-7-7-7-7--|times 
D|--x-x--x-x-x--x-x-x--x-x-x--x--|--x-x--x-x-x--x-x-x-x-x-x-x-x-x--| 
A|--2-2--2-2-2--2-5-5--5-5-5--2--|--2-2--2-2-2--2-5-5-5-5-5-5-5-5--| 
E|-------------------------------|---------------------------------| 
Then, 
e|-------------------------------|----------------------------------| 
B|-------------------------------|----------------------------------| 
G|--4-4--4-4-4--4-7-7--7-7-7--4--|--4-4--4-4-4--4-7-7/9-9/11111111--| 
D|--x-x--x-x-x--x-x-x--x-x-x--x--|--x-x--x-x-x--x-x-x-x-x--x-x-x-x--| 
A|--2-2--2-2-2--2-5-5--5-5-5--2--|--2-2--2-2-2--2-5-5/7-7/-9-9-9-9--| 
E|-------------------------------|----------------------------------| 

(SOLO) 
Gtr 1 
e|-----------------------------------|-----------------------------------| 
B|-----------------------------------|-----------------------------------| 
G|--4-4-4-4-4-4-4-7-7-7-7-7-7-7-7-7--|-----------------------------------| 
D|--4-4-4-4-4-4-4-7-7-7-7-7-7-7-7-7--|--7-7-7-7-7-7-7-7-9-9-9-9-7-7-7-7--| 
A|--2-2-2-2-2-2-2-5-5-5-5-5-5-5-5-5--|--7-7-7-7-7-7-7-7-9-9-9-9-7-7-7-7--| 
E|-----------------------------------|--5-5-5-5-5-5-5-5-7-7-7-7-5-5-5-5--| 
(continued) 
e|-----------------------------------|----------------------------------| 
B|-----------------------------------|----------------------------------| 
G|--4-4-4-4-4-4-4-7-7-7-7-7-7-7-7-7--|-----{------palm-muted-^_^-----}--| 
D|--4-4-4-4-4-4-4-7-7-7-7-7-7-7-7-7--|--7-------------------------------| 
A|--2-2-2-2-2-2-2-5-5-5-5-5-5-5-5-5--|--7--7-7-7-7-7-7-7-7-7-7-7-7-7-7--| 
E|-----------------------------------|--5--5-5-5-5-5-5-5-5-5-5-5-5-5-5--| 

Gtr 2 (not sure) 
e|--------------------------------------| 
B|--------------------------10~---------| 
G|--9^(11)-9^(11)-11p9p7-11-----11p9p7--| 
D|--------------------------------------| 
A|--------------------------------------| 
E|--------------------------------------| 
(continued) 
e|-------------------------------------|----------------------------| 
B|-------------------------------------|----------------------------| 
G|--9^(11)-9^(11)-11p9p7---------------|--------------7~-7~--7-7----| 
D|-----------------------9~-9~--9p7p5--|--5~-5~-4p2h4------------7--| 
A|-------------------------------------|----------------------------| 
E|-------------------------------------|----------------------------| 
(continued) 
e|-------------------------------------------|-------| 
B|-------------------------------------------|-------| 
G|--9/11—11p9p7h9p7--------------------------|-------| 
D|------------------9p7h9p7p5----------------|-------| 
A|----------------------------9p7p5h7--------|--5~~--| 
E|------------------------------------7p5p3--|-------| 

{REPEAT Chorus} 



	  

Search Paypal
auto scroll beats size up size down change color hide chords drawings
tab show chords e-chords YouTube Clip e-chords hide all tabs e-chords go to top tab