My Chemical Romance

home > My Chemical Romanc...

Famous Last Words Tab

My Chemical Romance

Difficulty: BeginnerBeginner

by DMfever

tuner correct add songbook print version text version save to e-mail
chordsukulelecavacokeyboardtabbassdrumsharmonicsflute Guitar Pro
chords

Famous Last Words

Year: 2006 - Album: The Black Parade

  		Song Title: Famous Last Words  
Album: The Black Parade  
Track No.: 13  
Band: My Chemical Romance  
Tabbed by: f1f2  
Email: ???  

This is the studio version of the song. I got it from...  

Tuning: Standard (all guitars)  

Ins.:  
Gtr 1  Frank Iero (right speaker)  
Gtr 2  Ray Toro (left speaker)  

(Im not sure on Gtr 2 because I think its in Drop D because in the Chorus  
it seems to play the lower D chord other than the higher one. Well, well  
just see on how Ray plays it live on the future.)  

I. VERSE 1 (0:01)  

Gtr 2  
e|-----------------------------------|-----------------------------------|  
B|--6-6------------------------------|-----------------------------------|  
G|--7-7-*-*-*-*-*-*-*-*-*-*-*-*-*-*--|-----------------------------------|  
D|--7-7-7-7-7-7-7-7-7-7-7-7-5-5-5-5--|--*-*-*-*-*-*-*-*-*-*-*-*-*-*-*-*--|  
A|--5-5-5-5-5-5-5-5-5-5-5-5-3-3-3-3--|--8-8-8-8-8-8-8-8-8-8-8-8-7-7-7-7--|  
E|-----------------------------------|--6-6-6-6-6-6-6-6-6-6-6-6-5-5-5-5--|  
(continued)  
e|-----------------------------------|-----------------------------------|  
B|-----------------------------------|-----------------------------------|  
G|-----------------------------------|------------------*-*-*-*-*-*-*-*--|  
D|--*-*-*-*-*-*-*-*-*-*-*-*-*-*-*-*--|--*-*-*-*-*-*-*-*-5-5-5-5-5-5-5-5--|  
A|--5-5-5-5-5-5-5-5-7-7-7-7-7-7-7-7--|--8-8-8-8-8-8-8-8-3-3-3-3-3-3-3-3--|  
E|--3-3-3-3-3-3-3-3-5-5-5-5-5-5-5-5--|--6-6-6-6-6-6-6-6------------------|  

Then, (0:16)  
Gtr 1 (comes in with the church organ)  
e|-----------------------------------|-----------------------------------|  
B|-----------------------------------|-----------------------------------|  
G|--7-7------------------------------|-----------------------------------|  
D|--7-7------------------------------|--8-8------------------------------|  
A|--5-5------------------------------|--8-8------------------------------|  
E|-----------------------------------|--6-6------------------------------|  
Gtr 2  
e|-----------------------------------|-----------------------------------|  
B|--6-6------------------------------|-----------------------------------|  
G|--7-7-*-*-*-*-*-*-*-*-*-*-*-*-*-*--|-----------------------------------|  
D|--7-7-7-7-7-7-7-7-7-7-7-7-5-5-5-5--|--8-8-*-*-*-*-*-*-*-*-*-*-*-*-*-*--|  
A|--5-5-5-5-5-5-5-5-5-5-5-5-3-3-3-3--|--8-8-8-8-8-8-8-8-8-8-8-8-7-7-7-7--|  
E|-----------------------------------|--6-6-6-6-6-6-6-6-6-6-6-6-5-5-5-5--|  

Gtr 1  
e|-----------------------------------|-----------------------------------|  
B|-----------------------------------|-----------------------------------|  
G|-----------------------------------|------------------5~~~-------------|  
D|--5-5------------------------------|--8-8~~~----------5~~~-------------|  
A|--5-5------------------------------|--8-8~~~----------3~~~-------------|  
E|--3-3------------------------------|--6-6~~~---------------------------|  
Gtr 2  
e|-----------------------------------|-----------------------------------|  
B|-----------------------------------|-----------------------------------|  
G|-----------------------------------|------------------5~~~-------------|  
D|--5-5-*-*-*-*-*-*-*-*-*-*-*-*-*-*--|--8-8~~~----------5~~~-------------|  
A|--5-5-5-5-5-5-5-5-7-7-7-7-7-7-7-7--|--8-8~~~----------3~~~-------------|  
E|--3-3-3-3-3-3-3-3-5-5-5-5-5-5-5-5--|--6-6~~~---------------------------|  


II. BREAKDOWN (0:32)  

Gtr 1  
e|-------------------|-------------------|-------------------|---------------|  
B|-------------------|-------------------|------------6------|---------------|  
G|--7-7--------------|--7-7--------------|--7-7-7-5-7---7-5--|--7-7-7-7-7~~--|  
D|--7-7--------------|--7-7--------------|--7-7--------------|--7-7-7-7-7~~--|  
A|--5-5--------------|--5-5--------------|--5-5--------------|--5-5-5-5-5~~--|  
E|-------------------|-------------------|-------------------|---------------|  
Gtr 2  
e|-------------------|-------------------|-------------------|---------------|  
B|------------6------|------------6-8-6--|------------6------|---------------|  
G|--7-7-7-5-7---7-5--|--7-7-7-5-7--------|--7-7-7-5-7---7-5--|--7-7-7-7-7~~--|  
D|--7-7--------------|--7-7--------------|--7-7--------------|--7-7-7-7-7~~--|  
A|--5-5--------------|--5-5--------------|--5-5--------------|--5-5-5-5-5~~--|  
E|-------------------|-------------------|-------------------|---------------|  


III. VERSE 2 (0:39)  

Both guitars (not sure)  
e|--------------------|--------------------|--------------------|2x  
B|--------------------|--------------------|--------------------|(then see  
G|--7777777777775555--|--------------------|--------------------|below)  
D|--7777777777775555--|--8888888888887777--|--5555555577777777--|  
A|--5555555555553333--|--8888888888888888--|--5555555577777777--|  
E|--------------------|--6666666666665555--|--3333333355555555--|  
(continued)  
e|--------1st---------|--------2nd---------|  
B|--------------------|--------------------|  
G|----------55555555--|----------55555\----|  
D|--8888888855555555--|--8888888855555\----|  
A|--8888888833333333--|--8888888833333\----|  
E|--66666666----------|--66666666----------|  


IV. Chorus (1:10)  

Gtr 1  
e|------------------------------------|------------------------------------|  
B|------------------------------------|------------------------------------|  
G|--14141414141414141414141412121212--|--14141414141414141414141412121212--|  
D|---x-x-x-x-x-x-x-x-x-x-x-x-x-x-x-x--|---x-x-x-x-x-x-x-x-x-x-x-x-x-x-x-x--|  
A|--12121212121212121212121210101010--|--12121212121212121212121210101010--|  
E|------------------------------------|------------------------------------|  
Gtr 2  
e|------------------------------------|-----------------------------------|  
B|------------------------------------|-----------------------------------|  
G|--101010101010101010101010-9-9-9-9--|--7-7-7-7-7-7-7-7-7-7-7-7-5-5-5-5--|  
D|--101010101010101010101010-x-x-x-x--|--7-7-7-7-7-7-7-7-7-7-7-7-5-5-5-5--|  
A|---8-8-8-8-8-8-8-8-8-8-8-8-7-7-7-7--|--5-5-5-5-5-5-5-5-5-5-5-5-3-3-3-3--|  
E|------------------------------------|-----------------------------------|  

Gtr 1  
e|------------------------------------|------------------------------------|  
B|------------------------------------|------------------------------------|  
G|--10101010101010101212121212121212--|--1010101010101010-9-9-9-9-9-9-9-9--|  
D|---x-x-x-x-x-x-x-x-x-x-x-x-x-x-x-x--|---x-x-x-x-x-x-x-x-x-x-x-x-x-x-x-x--|  
A|---8-8-8-8-8-8-8-81010101010101010--|---8-8-8-8-8-8-8-8-7-7-7-7-7-7-7-7--|  
E|------------------------------------|------------------------------------|  
Gtr 2  
e|-----------------------------------|-----------------------------------|  
B|-----------------------------------|-----------------------------------|  
G|------------------5-5-5-5-5-5-5-5--|------------------5-5-5-5-5-5-5-5--|  
D|--8-8-8-8-8-8-8-8-5-5-5-5-5-5-5-5--|--8-8-8-8-8-8-8-8-5-5-5-5-5-5-5-5--|  
A|--8-8-8-8-8-8-8-8-3-3-3-3-3-3-3-3--|--8-8-8-8-8-8-8-8-3-3-3-3-3-3-3-3--|  
E|--6-6-6-6-6-6-6-6------------------|--6-6-6-6-6-6-6-6------------------|  

(Repeat BREAKDOWN)  

Then, for the next verse (1:33), Gtr 2 just plays the tab for VERSE 2  
while Gtr 1 plays this riff:  
Gtr 1  
e|-------------------|-------------------|-------------------|then, below  
B|------------6------|------------6-8-6--|------------6------|(?) times  
G|--7-5-7-5-7---7-5--|--7-5-7-5-7--------|--7-5-7-5-7---7-5--|  
D|-------------------|-------------------|-------------------|  
A|-------------------|-------------------|-------------------|  
E|-------------------|-------------------|-------------------|  
(continued)  
e|--------1st--------|--------2nd--------|  
B|------------6-8-6--|--6-6-6-5-5--------|  
G|--7-5-7-5-7--------|------------7-5----|  
D|-------------------|----------------8--|  
A|-------------------|-------------------|  
E|-------------------|-------------------|  

(Repeat Chorus 2x)  


V. SOLO (2:35)  

Gtr 1  
e|------------------|--------------------|4x  
B|------------------|--------------------|  
G|--7--5------------|--------------------|  
D|--7--5--8--7-5-3--|--5555555577777777--|  
A|--5--3--8--7-5-3--|--5555555577777777--|  
E|--------6--5-3-1--|--3333333355555555--|  
Gtr 2 (not 100% sure)  
e|----------15-13----------------------------------|  
B|--15b-15b--------15--18p17t15-17p15t13-17-15-13--|  
G|-------------------------------------------------|  
D|-------------------------------------------------|  
A|-------------------------------------------------|  
E|-------------------------------------------------|  
(continued)  
e|---------------------------------------12-10-----|  
B|--15b-15b-18-17--15--18p17t15-15p13t12-------12--|  
G|-------------------------------------------------|  
D|-------------------------------------------------|  
A|-------------------------------------------------|  
E|-------------------------------------------------|  
(continued)  
e|--|----------------|-----------------|2x  
B|--|tremolo picking)|-----------------|  
G|--------------14-12--15-14-15-14-12--|  
D|--15-14-17-15------------------------|  
A|--|----------------|-----------------|  
E|--|----------------|-----------------|  
(continued)  
e|------------------------------|-----------15-13----13-12-15-12-10--|  
B|------------------------------|--15-15-14-------15-----------------|  
G|-----------12-14-15-12-10-9~--|------------------------------------|  
D|--12-14-15--------------------|------------------------------------|  
A|------------------------------|------------------------------------|  
E|------------------------------|------------------------------------|  
(continued)  
e|-------------------|--15b-15b-15b-15b-15b~~~--|  
B|--15b-15b-15b-15b--|--------------------------|  
G|-------------------|--------------------------|  
D|-------------------|--------------------------|  
A|-------------------|--------------------------|  
E|-------------------|--------------------------|  


VI. BRIDGE (3:03)  

Gtr 2  
e|-------------------------------------|--------------------|  
B|-------------------------------------|--------------------|  
G|--1010-------------------------------|--************------|  
D|---x-x-1010101010101010101010101010--|--777777777777****--|  
A|---8-8--8-8-8-8-8-8-8-8-8-8-7-7-7-7--|--5555555555557777--|  
E|--------*-*-*-*-*-*-*-*-*-*-*-*-*-*--|--------------5555--|  
(continued)  
e|--------------------|--------------------|2x  
B|--------------------|--------------------|  
G|----------********--|----------********--|  
D|--********55555555--|--********55555555--|  
A|--8888888833333333--|--5555555533333333--|  
E|--66666666----------|--33333333----------|  
Gtr 1 (comes when Gtr 2 has played above ^ once)  
e|------------2x--------------|----------------------|---------------------|  
B|----------------------------|----------------------|--6-------8-10-8-----|  
G|--10-101010-10-12-14-12-10--|--10-101010-10-9-7-9--|----9-7-9--------10--|  
D|----------------------------|----------------------|---------------------|  
A|----------------------------|----------------------|---------------------|  
E|----------------------------|----------------------|---------------------|  

Then, (3:34)  
Gtr 1  
e|------------------------------------|------------------------------------|  
B|------------------------------------|------------------------------------|  
G|--17171717171717171717171714141212--|--10101010101010101212121212121212--|  
D|---x-x-x-x-x-x-x-x-x-x-x-x-x-x-x-x--|---x-x-x-x-x-x-x-x-x-x-x-x-x-x-x-x--|  
A|--15151515151515151515151512121010--|---8-8-8-8-8-8-8-81010101010101010--|  
E|------------------------------------|------------------------------------|  
Gtr 2  
e|-----------------------------------|-----------------------------------|  
B|-----------------------------------|-----------------------------------|  
G|-----------------------------------|--7-7-7-7-7-7-7-7-7-7-7-7-7-7-7-7--|  
D|--3-3-3-3-3-3-3-3-3-3-3-3-3-3-3-3--|--7-7-7-7-7-7-7-7-7-7-7-7-7-7-7-7--|  
A|--3-3-3-3-3-3-3-3-3-3-3-3-3-3-3-3--|--5-5-5-5-5-5-5-5-5-5-5-5-5-5-5-5--|  
E|--1-1-1-1-1-1-1-1-1-1-1-1-1-1-1-1--|-----------------------------------|  

Gtr 1  
e|------------------------------------|------------------------------------|  
B|------------------------------------|------------------------------------|  
G|--1010101010101010-9-9-9-9-7-7-7-7--|--1212121210101010-9-9-9-910101010--|  
D|---x-x-x-x-x-x-x-x-x-x-x-x-x-x-x-x--|---x-x-x-x-x-x-x-x-x-x-x-x-x-x-x-x--|  
A|---8-8-8-8-8-8-8-8-7-7-7-7-5-5-5-5--|--10101010-8-8-8-8-7-7-7-7-8-8-8-8--|  
E|------------------------------------|------------------------------------|  
Gtr 2  
e|-----------------------------------|-----------------------------------|  
B|-----------------------------------|-----------------------------------|  
G|------------------5-5-5-5-5-5-5-5--|------------------5-5-5-5-5-5-5-5--|  
D|--8-8-8-8-8-8-8-8-5-5-5-5-5-5-5-5--|--5-5-5-5-5-5-5-5-5-5-5-5-5-5-5-5--|  
A|--8-8-8-8-8-8-8-8-3-3-3-3-3-3-3-3--|--5-5-5-5-5-5-5-5-3-3-3-3-3-3-3-3--|  
E|--6-6-6-6-6-6-6-6------------------|--3-3-3-3-3-3-3-3------------------|  

(Uh-oh repeat that part ^ ^ ^ twice)  


VII. CODA / OUTRO (is it okay to call it CODA?) (4:05)  

Gtr 1  
e|------------------------------------------|8x  
B|--13-----13-----13-----13----10-11-10-11--|  
G|-----10-----10-----10-----10--------------|  
D|------------------------------------------|  
A|------------------------------------------|  
E|------------------------------------------|  
Gtr 2  
e|--------------------|--------------------|--------------------|  
B|--------------------|--------------------|--------------------|  
G|--------------------|--7777777777777777--|----------55555555--|  
D|--3333333333333333--|--7777777777777777--|--8888888855555555--|  
A|--3333333333333333--|--5555555555555555--|--8888888833333333--|  
E|--1111111111111111--|--------------------|--66666666----------|  
(continued)  
e|--------------------|2x  
B|--------------------|  
G|----------55555555--|  
D|--5555555555555555--|  
A|--5555555533333333--|  
E|--33333333----------|  

Then, end on:  
Both Guitars  
e|----------|  
B|----------|  
G|----------|  
D|--3~~~~~--|  
A|--3~~~~~--|  
E|--1~~~~~--|  

There you go! I tabbed that for almost 1 hour! Pls rate/comment it!  
Thanks!  


	  

Full key step upFull key step up
Half key step upHalf key step up
Half key step downHalf key step down
Full key step downFull key step down
Search Paypal
auto scroll beats size up size down change color hide chords drawings
tab show chords e-chords YouTube Clip e-chords hide all tabs e-chords go to top tab