My Chemical Romance

home > My Chemical Romanc...

Cancer Tab

My Chemical Romance

Difficulty: nolevelnolevel

by carlluz

tuner correct add songbook print version text version save to e-mail
chordsukulelecavacokeyboardtabbassdrumsharmonicsflute Guitar Pro
chords

Cancer

Year: 2006 - Album: The Black Parade

Key:  E More
Cancer Key BB
Cancer Key CC
Cancer Key C#C#
Cancer Key DD(one step down)
Cancer Key D#D#(half step down)
Cancer Key EE(original key)
Cancer Key FF(half step up)
Cancer Key F#F#(one step up)
Cancer Key GG
Cancer Key G#G#
Cancer Key AA
Cancer Key A#A#
  		
Tuning: Standard 

Hey guys, this is actually my first tab, so sorry if its not the best. So that 
nobody complains about it, this is not how My Chemical Romance played this song. I'm just 
tabbing the melody for whoever would like to have it. Enjoy. 

(Lightly Distorted) 


(verse 1) 

(Starts at 0:13) 
e|------------7-7-9-9-11-11-12~----11-9-------------------------| 
B|-5/7--9-9-----------------------9----9--11-10-9----11-10-9----| 
G|--------------------------------------9---------11---------11-| 
D|--------------------------------------------------------------|  
A|--------------------------------------------------------------| 
E|--------------------------------------------------------------| 

e|------------7-7-9-9-11-11-12~----11-9--------------------| 
B|--10--9-9-----------------------9----9--11-10-9----11-10-| 
G|--------------------------------------9---------11-------| 
D|---------------------------------------------------------|  
A|---------------------------------------------------------| 
E|---------------------------------------------------------| 

(Pre-Chorus) 

e|--------------------------7--9--12--16-14-12~----------| 
B|-10-10-9-7---10-9--7~----------------------------13~---| 
G|-----------9-------------------------------------------| 
D|-------------------------------------------------------| 
A|-------------------------------------------------------| 
E|-------------------------------------------------------| 

(Chorus) 

e|--14-16-17-16--14-12-11--11--12-12-14-12~--| 
B|-------------------------------------------| 
G|-------------------------------------------| 
D|-------------------------------------------| 
A|-------------------------------------------| 
E|-------------------------------------------| 

(verse 2) 

e|--------------7-7-9-9-11-11-12~----11-9-------------------------| 
B|-5-5/7--9-9-----------------------9----9--11-10-9----11-10-9----| 
G|----------------------------------------9---------11---------11-| 
D|----------------------------------------------------------------|  
A|----------------------------------------------------------------| 
E|----------------------------------------------------------------| 

e|------------7-7-16-14-14-12~-----11-9----------------------| 
B|--10--12-9----------------------9----9--11-10-9----11-10---| 
G|--------------------------------------9---------11---------| 
D|-----------------------------------------------------------|  
A|-----------------------------------------------------------| 
E|-----------------------------------------------------------| 

(Pre-Chorus 2) 

e|--------------------------7--9--12--16-14-12~-------------12--16-17-12~--| 
B|-10-10-9-7---10-9--7~-----------------------------13--13-----------------| 
G|-----------9-------------------------------------------------------------| 
D|-------------------------------------------------------------------------| 
A|-------------------------------------------------------------------------| 
E|-------------------------------------------------------------------------| 

(Bridge) 

e|----------16-16--12-14-------16h17-16---12-14--------16--17--16----16--14--12--11-| 
B|-13--11-11-------------11-12-------------------12-13------------13----------------| 
G|----------------------------------------------------------------------------------| 
D|----------------------------------------------------------------------------------| 
A|----------------------------------------------------------------------------------| 
E|----------------------------------------------------------------------------------| 

e|-14-16-17-16--14-12-11--11--12-12-14-12-9~--8~--7~--6~---| 
B|---------------------------------------------------------| 
G|---------------------------------------------------------| 
D|---------------------------------------------------------| 
A|---------------------------------------------------------| 
E|---------------------------------------------------------| 

(Outro) 

e|-14-16-17-16--14-12-16--11--12-12-14-12~--| 
B|------------------------------------------| 
G|------------------------------------------| 
D|------------------------------------------| 
A|------------------------------------------| 
E|------------------------------------------| 

************************************ 

| /   slide up 
| \   slide down 
| h   hammer-on 
| p   pull-off 
| ~   vibrato 
| +   harmonic 
| x   Mute note 
| b   Bend 
| pb  Pre-bend 
| br  Bend release 
| pbr Pre-bend release 
| brb Bend release bend 

************************************ 
	  

Search Paypal
auto scroll beats size up size down change color hide chords drawings
tab show chords e-chords YouTube Clip e-chords hide all tabs e-chords go to top tab