Músicas Infantis

home > Músicas Infantis

Teletubies (ver. 2 ) Tab

Músicas Infantis

Difficulty: nolevelnolevel

by rordaque

tuner correct add songbook print version text version save to e-mail
chordsukulelecavacokeyboardtabbassdrumsharmonicsflute Guitar Pro
chords

Teletubies (ver. 2 )

  		e|-----------------------| 
b|-----------------------| 
g|----------2------------| 
D|-5-5-2-5---3--5-2-0----| 
A|-----------------------| 
E|-----------------------| 
 
e|-----------------------| 
b|--------------------0-1| 
g|----------2-2---2------| 
D|-5-5-2-5------3---5----| 
A|-----------------------| 
E|-----------------------| 
 

	  

Search Paypal
auto scroll beats size up size down change color hide chords drawings
tab show chords e-chords YouTube Clip e-chords hide all tabs e-chords go to top tab