Músicas Infantis

home > Músicas Infantis

Pantera Cor de Rosa Tab

Músicas Infantis

Difficulty: BeginnerBeginner

by rordaque

tuner correct add songbook print version text version save to e-mail
chordsukulelecavacokeyboardtabbassdrumsharmonicsflute Guitar Pro
chords

Pantera Cor de Rosa

  		---5-6-7-8----8-7-6-5----5-6-7-8-----8-7-6-5--------------------- 
----------------------------------------------------------------- 
----------------------------------------------------------------- 
----------------------------------------------------------------- 
----------------------------------------------------------------- 
----------------------------------------------------------------- 
 
 
---5-6-7-8------7-8-----------6------------8-6-8----------------- 
------------5-6-----5-6--10-9---6-9-8--8-6----------------------- 
----------------------------------------------------------------- 
----------------------------------------------------------------- 
----------------------------------------------------------------- 
----------------------------------------------------------------- 
 
---------7-8-----------6----------------------------------------- 
---5-6-------5-6--10-9---6-9-8-8-8-8-8-8-8-6-8-10----------------- 
----------------------------------------------------------------- 
----------------------------------------------------------------- 
----------------------------------------------------------------- 
----------------------------------------------------------------- 
 
---------------8-------------------8-6-8--8-8-8-8-8-8-8--8-7-6-5- 
--------10-8-6---8-8-8-6-8-10--8-6------------------------------ 
--^10-8--------------------------------------------------------- 
---------------------------------------------------------------- 
---------------------------------------------------------------- 
---------------------------------------------------------------- 
 

	  

Search Paypal
auto scroll beats size up size down change color hide chords drawings
tab show chords e-chords YouTube Clip e-chords hide all tabs e-chords go to top tab