Muse

home > Muse

Map of the probletique Tab

Muse

Difficulty: nolevelnolevel

by Nick+D

tuner correct add songbook print version text version save to e-mail
chordsukulelecavacokeyboardtabbassdrumsharmonicsflute Guitar Pro
chords

Map of the probletique

  		Tuning: eBGDAC (Drop C) 
. 
Intro 1 
e:-----------------------------------------| 
B:-----------------------------------------| 
G:-----------------------------------------| 
D:-----------------------------------------| 
A:--15-15----15-15------15-15-----15-15----| 
C:-0---------0-----------0-----------0-----| 

Intro 2 
e:----------------------------------| 
B:----------------------------------| 
G:----------------------------------| 
D:----------------------------------| 
A:-15-15---13-13---18-18---15-15----| 
C:-0-0---15-15---20-20---17-17------| 

This is the riff played over the second intro above that you may recognize: 
e:----------------------------------------------------------------| 
B:----------------------------------------------------------------| 
G:-5-5-5-5-5-5-5-5-5-5-5-5/7-7-7/8-8-8-8-8-8-8-8-8-8-8-8-8-8------|e.t.c. 

e:---------------------------------------------------------------| 
B:---------------------------------------------------------------| 
G:-8-8-8-8-8--7-5-7-7-7-7-7--5-3-5-5-5-5-5--3-1-1-1-1-1-1--0-----| < x2 

e:-0----x----x----x--| 
B:-1----3----x----x--| 
G:-0----3----x----x--| 
D:-1----3----6----3--| 
A:-3----1----6----3--| 
C:-0----x----8----5--| 
  Cm    Bb   G#   Fm 


	  

Full key step upFull key step up
Half key step upHalf key step up
Half key step downHalf key step down
Full key step downFull key step down
Search Paypal
auto scroll beats size up size down change color hide chords drawings
tab show chords e-chords YouTube Clip e-chords hide all tabs e-chords go to top tab