Muse

home > Muse

City of delusion Tab

Muse

Difficulty: ExpertExpert

by Nick+D

tuner correct add songbook print version text version save to e-mail
chordsukulelecavacokeyboardtabbassdrumsharmonicsflute Guitar Pro
chords

City of delusion

Year: 2006 - Album: Black Holes and Revelations

  		Tuning: EADGBE 

Intro 

E|--x-x-x-x-x-x-x-x--| 
B|--x-x-x-x-x-x-x-x--| 
G|--x-x-x-x-x-x-x-x--| 
D|--x-x-x-x-x-x-x-x--| 
A|-------------------| 
E|-------------------| 

E|--1-1-1-1--0-0-0-0-0-0-0-0-0--| 
B|--3-3-3-3--2-2-2-2-2-2-2-2-2--| 
G|--2-2-2-2--2-2-2-2-2-2-2-2-2--|  X 4 
D|--0-0-0-0--0-0-0-0-0-0-0-0-0--| 
A|------------------------------| 
E|------------------------------| 

Verse 

E|--1-1-1-1--0-0-0-0-0-0-0-0-0--| 
B|--3-3-3-3--2-2-2-2-2-2-2-2-2--| 
G|--2-2-2-2--2-2-2-2-2-2-2-2-2--|  X 4 
D|--0-0-0-0--0-0-0-0-0-0-0-0-0--| 
A|------------------------------| 
E|------------------------------| 

E|--1-1-1-1--3-3-3-3-3-3-3-3-3--1-1-1-1--6-6-6-6-6-6-6-6-6--| 
B|--3-3-3-3--2-2-2-2-2-2-2-2-2--3-3-3-3--8-8-8-8-8-8-8-8-8--| 
G|--2-2-2-2--2-2-2-2-2-2-2-2-2--2-2-2-2--7-7-7-7-7-7-7-7-7--| 
D|--0-0-0-0--0-0-0-0-0-0-0-0-0--0-0-0-0--0-0-0-0-0-0-0-0-0--| 
A|----------------------------------------------------------| 
E|----------------------------------------------------------| 

E|--1-1-1-1--3-3-3-3-3-3-3-3-3--1-1-1-1--0-0-0-0-0-0-0-0-0--| 
B|--3-3-3-3--2-2-2-2-2-2-2-2-2--3-3-3-3--2-2-2-2-2-2-2-2-2--| 
G|--2-2-2-2--2-2-2-2-2-2-2-2-2--2-2-2-2--2-2-2-2-2-2-2-2-2--| 
D|--0-0-0-0--0-0-0-0-0-0-0-0-0--0-0-0-0--0-0-0-0-0-0-0-0-0--| 
A|----------------------------------------------------------| 
E|----------------------------------------------------------| 

E|--0-0-0-0--3-3-3-3-3-3-3-3-3--0-0-0-0--3-3-3-3-3-3-3-3-3--| 
B|--2-2-2-2--3-3-3-3-3-3-3-3-3--2-2-2-2--3-3-3-3-3-3-3-3-3--| 
G|--2-2-2-2--3-3-3-3-3-3-3-3-3--2-2-2-2--3-3-3-3-3-3-3-3-3--| 
D|--2-2-2-2--3-3-3-3-3-3-3-3-3--2-2-2-2--3-3-3-3-3-3-3-3-3--| 
A|--0-0-0-0--0-0-0-0-0-0-0-0-0--0-0-0-0--0-0-0-0-0-0-0-0-0--| 
E|----------------------------------------------------------| 

E|--0-0-0-0-------------------------------------------------| 
B|--2-2-2-2--2-2-2-2-2-2-2-2-2--3-3-3-3--2-2-2-2-2-2-2-2-2--| 
G|--2-2-2-2--0-0-0-0-0-0-0-0-0--3-3-3-3--2-2-2-2-2-2-2-2-2--| 
D|--2-2-2-2--2-2-2-2-2-2-2-2-2--3-3-3-3--2-2-2-2-2-2-2-2-2--| 
A|--0-0-0-0--0-0-0-0-0-0-0-0-0--0-0-0-0--0-0-0-0-0-0-0-0-0--| 
E|----------------------------------------------------------| 

REPEAT FROM START 

E|--1-1-1-1--0-0-0-0-0-0-0-0-0--|        |--1-x-1-x-1--| 
B|--3-3-3-3--2-2-2-2-2-2-2-2-2--|        |--3-x-3-x-3--| 
G|--2-2-2-2--2-2-2-2-2-2-2-2-2--|  X 3   |--2-x-2-x-2--| 
D|--0-0-0-0--0-0-0-0-0-0-0-0-0--|        |--0-x-0-x-0--| 
A|------------------------------|        |-------------| 
E|------------------------------|        |-------------| 

Chorus 

|  Guitar 1 
| E|------------------------------------------------------| 
| B|-----------10-10-10---10-10-10---10-10-10---10-10-10--| 
| G|------------------------------------------------------| 
| D|-----------7--7--7----7--7--7----7--7--7----7--7--7---| 
| A|------------------------------------------------------| 
| E|------------------------------------------------------| 
| 
|  Guitar 2 
| E|--x-x-x-x--8--8--8----9--9--9----10-10-10---5--5--5--| 
| B|--x-x-x-x--10-10-10---10-10-10---10-10-10---5--5--5--| 
| G|--x-x-x-x--10-10-10---9--9--9----10-10-10---6--6--6--| 
| D|--x-x-x-x--10-10-10---11-11-11---12-12-12---7--7--7--| 
| A|--x-x-x-x--8--8--8----12-12-12---12-12-12---7--7--7--| 
| E|--x-x-x-x--8--8--8----9--9--9----10-10-10---5--5--5--| 


|  Guitar 1 
| E|---------------------------------------------| 
| B|--10-10-10---10-10-10---11-11-10---11-11-10--| 
| G|---------------------------------------------| 
| D|--7--7--7----7--7--7----8--8--7----8--8--7---| 
| A|---------------------------------------------| 
| E|---------------------------------------------| 
| 
|  Guitar 2 
| E|--3--3--3----1--1--1----0--0--0----5--5--5--| 
| B|--3--3--3----1--1--1----2--2--2----6--6--6--| 
| G|--3--3--3----2--2--2----2--2--2----7--7--7--| 
| D|--5--5--5----3--3--3----2--2--2----7--7--7--| 
| A|--5--5--5----3--3--3----0--0--0----5--5--5--| 
| E|--3--3--3----1--1--1------------------------| 


 Guitar 1 
E|------------------------------------| 
B|--10-x-10-x-10-x-10-10-10-10-10-10--| 
G|------------------------------------| 
D|--7--x-7--x-7--x-7--7--7--7--7--7---| 
A|------------------------------------| 
E|------------------------------------| 


|  Guitar 1 
| E|---------------------------------------------------------------------| 
| B|--10-10-10-10-10---10-10-10-10-10--10-10-10-10-10---10-8-6-5b6r5-----| 
| G|---------------------------------------------------------------------| 
| D|--7--7--7--7--7----7--7--7--7--7---7--7--7--7--7----7--5-3-2------7--| 
| A|---------------------------------------------------------------------| 
| E|------------------------------------------------------------------5--| 
| 
|  Guitar 2 
| E|--10-10-10-10-10---8--8--8--8--8---5--5--5--5--5---------------| 
| B|--11-11-11-11-11---10-10-10-10-10--5--5--5--5--5---------------| 
| G|--12-12-12-12-12---10-10-10-10-10--6--6--6--6--6---------------| 
| D|--12-12-12-12-12---10-10-10-10-10--7--7--7--7--7---------------| 
| A|--10-10-10-10-10---8--8--8--8--8---7--7--7--7--7---------------| 
| E|-----------------------------------5--5--5--5--5---------------| 


|  Guitar 1 
| E|---------------------------------------------| 
| B|--10-10-10---10-10-10---11-11-10---11-11-10--| 
| G|---------------------------------------------| 
| D|--7--7--7----7--7--7----8--8--7----8--8--7---| 
| A|---------------------------------------------| 
| E|---------------------------------------------| 
| 
|  Guitar 2 
| E|--3--3--3----1--1--1----0--0--0----5--5--5--| 
| B|--3--3--3----1--1--1----2--2--2----6--6--6--| 
| G|--3--3--3----2--2--2----2--2--2----7--7--7--| 
| D|--5--5--5----3--3--3----2--2--2----7--7--7--| 
| A|--5--5--5----3--3--3----0--0--0----5--5--5--| 
| E|--3--3--3----1--1--1------------------------| 


 Guitar 1 
E|--------------------------------------------------------------------| 
B|--10-x-10-x-10-x-x-10-10-10-10-10--10-x-10-x-10-x-x-10-10-10-10-10--| 
G|--------------------------------------------------------------------| 
D|--7--x-7--x-7--x-x-7--7--7--7--7---7--x-7--x-7--x-x-7--7--7--7--7---| 
A|--------------------------------------------------------------------| 
E|--------------------------------------------------------------------| 

E|-------------------------------------------------------------------------| 
B|--10-x-10-x-11-x-x-11-11-11-11-11--13-x-13-x-14-x-x-14-14-14-14-14--15\--| 
G|-------------------------------------------------------------------------| 
D|--7--x-7--x-8--x-x-8--8--8--8--8---10-x-10-x-11-x-x-11-11-11-11-11--12\--| 
A|-------------------------------------------------------------------------| 
E|-------------------------------------------------------------------------| 

E|-----------------------------| 
B|--x--x-x--x-x--x-x-x-x--x-x--| 
G|-----------------------------|  X 8 
D|--x--x-x--x-x--x-x-x-x--x-x--| 
A|-----------------------------| 
E|-----------------------------| 

E|--------------------------|        |-----------------| 
B|--10-x-10-x-10-x-x-10-10--|        |--10-x-10-x-10\--| 
G|--------------------------|  X 7   |-----------------| 
D|--7--x-7--x-7--x-x-7--7---|        |--7--x-7--x-7\---| 
A|--------------------------|        |-----------------| 
E|--------------------------|        |-----------------| 

REPEAT Chorus 

E|--1-1-1-1--0-0-0-0-0-0-0-0-0--| 
B|--3-3-3-3--2-2-2-2-2-2-2-2-2--| 
G|--2-2-2-2--2-2-2-2-2-2-2-2-2--|  X 8 
D|--0-0-0-0--0-0-0-0-0-0-0-0-0--| 
A|------------------------------| 
E|------------------------------| 

E|--1-1-1-1--3-3-3-3-3-3-3-3-3--1-1-1-1--6-6-6-6-6-6-6-6-6--| 
B|--3-3-3-3--5-5-5-5-5-5-5-5-5--3-3-3-3--8-8-8-8-8-8-8-8-8--| 
G|--2-2-2-2--3-3-3-3-3-3-3-3-3--2-2-2-2--7-7-7-7-7-7-7-7-7--| 
D|--0-0-0-0--0-0-0-0-0-0-0-0-0--0-0-0-0--0-0-0-0-0-0-0-0-0--| 
A|----------------------------------------------------------| 
E|----------------------------------------------------------| 

E|--5-5-5-5--3-3-3-3-3-3-3-3-3--1-1-1-1--0-0-0-0-0-0-0-0-0--| 
B|--6-6-6-6--5-5-5-5-5-5-5-5-5--3-3-3-3--2-2-2-2-2-2-2-2-2--| 
G|--7-7-7-7--3-3-3-3-3-3-3-3-3--2-2-2-2--2-2-2-2-2-2-2-2-2--| 
D|--0-0-0-0--0-0-0-0-0-0-0-0-0--0-0-0-0--0-0-0-0-0-0-0-0-0--| 
A|----------------------------------------------------------| 
E|----------------------------------------------------------| 

E|--0-0-0-0--3-3-3-3-3-3-3-3-3--0-0-0-0--3-3-3-3-3-3-3-3-3--| 
B|--2-2-2-2--3-3-3-3-3-3-3-3-3--2-2-2-2--3-3-3-3-3-3-3-3-3--| 
G|--2-2-2-2--3-3-3-3-3-3-3-3-3--2-2-2-2--3-3-3-3-3-3-3-3-3--| 
D|--2-2-2-2--3-3-3-3-3-3-3-3-3--2-2-2-2--3-3-3-3-3-3-3-3-3--| 
A|--0-0-0-0--0-0-0-0-0-0-0-0-0--0-0-0-0--0-0-0-0-0-0-0-0-0--| 
E|----------------------------------------------------------| 

E|--0-0-0-0-------------------------------------------------| 
B|--2-2-2-2--2-2-2-2-2-2-2-2-2--3-3-3-3--2-2-2-2-2-2-2-2-2--| 
G|--2-2-2-2--0-0-0-0-0-0-0-0-0--3-3-3-3--2-2-2-2-2-2-2-2-2--| 
D|--2-2-2-2--2-2-2-2-2-2-2-2-2--3-3-3-3--2-2-2-2-2-2-2-2-2--| 
A|--0-0-0-0--0-0-0-0-0-0-0-0-0--0-0-0-0--0-0-0-0-0-0-0-0-0--| 
E|----------------------------------------------------------| 

E|--1-1-1-1--0-0-0-0-0-0-0-0-0--|        |--1-x-1-x-1--| 
B|--3-3-3-3--2-2-2-2-2-2-2-2-2--|        |--3-x-3-x-3--| 
G|--2-2-2-2--2-2-2-2-2-2-2-2-2--|  X 3   |--2-x-2-x-2--| 
D|--0-0-0-0--0-0-0-0-0-0-0-0-0--|        |--0-x-0-x-0--| 
A|------------------------------|        |-------------| 
E|------------------------------|        |-------------| 

REPEAT Chorus 



	  

Search Paypal
auto scroll beats size up size down change color hide chords drawings
tab show chords e-chords YouTube Clip e-chords hide all tabs e-chords go to top tab