Murphy's Law

Vicky Crown

Murphy's Law

tabs

by  EDUCASTILHO

save to print version add songbook text version e-mail correct tuner
chordsukulelecavacokeyboardtabbassdrumsharmonicaflute Guitar Pro
close

there isn't a video lesson for this song

chords

Vicky Crown

	  		

verse 1 
E---------------------------------| 
B---------------------------------| 
G-2-2-----4-4-----7-7-----2-2-----| 
D-2-2x15--4-4x15--7-7x15--2-2x15--| 
A-0-0-----2-2-----5-5-----0-0-----| 
E---------------------------------| 
    .       .       .       . 

verse 1 (Continued) Play Not Muted. 
E-------------------------| 
B-------------------------| 
G-2-----4-----7-----2-----| 
D-2x16--4x16--7x16--2x16--| 
A-0-----2-----5-----0-----| 
E-------------------------| 

Pre-Chorus 1 
E-------------------------| 
B-------------------------| 
G-2-----------7-----9-----| 
D-2x16--5-----7x16--9x16--| 
A-0-----5x16--5-----7-----| 
E-------3-----------------| 

Chorus 1 
E------------------------------------------| 
B----------33-------------------333-5-555--| 
G-2-22-222-22-2-22-XX--2-22-222-222-4-444--| 
D-2-22-222-00-2-22-XX--2-22-222-000-2-222--| 
A-0-00-000----0-00-XX--0-00-000------------| 
E------------------------------------------| 

E-------------------------0-0---0-------------| 
B-----------------------------0---------------| 
G----------444-7-777---------------777/9-999--| 
D-4-44-444-444-7-777--2-2----------xxx-x-xxx--| 
A-4-44-444-222-5-555--2-2----------555/7-777--| 
E-2-22-222------------0-0---------------------| 

Chorus 1 (Continued) 
E---------------------------------------------| 
B----------33----------------------333-5-555--| 
G-2-22-222-22-2-22-222-XX-2-22-222-222-4-444--| 
D-2-22-222-00-2-22-222-XX-2-22-222-000-2-222--| 
A-0-00-000----0-00-000-XX-0-00-000------------| 
E---------------------------------------------| 

E---------------------------| 
B---------------------------| 
G----------444-7-777--------| 
D-4-44-444-444-7-777--2-----| 
A-4-44-444-222-5-555--2x16--| 
E-2-22-222------------0-----| 

Then: 
*verse 2 

Pre-Chorus 2 
E-------------------------| 
B-------------------------| 
G-2-----------7-----9-----| 
D-2x16--5-----7x16--9x16--| 
A-0-----5x16--5-----7-----| 
E-------3-----------------| 

Then: 
*Chorus 2 

Pre-Solo 
E------------------------------0~~--| 
B------------------------------0~~--| 
G-44------77-----------44------x~~--| 
D-44--55--77--77--5-4--44--55--2~~--| 
A-22--55--55--77--5-4--22--55--2~~--| 
E-----33------55--3-2------33--0~~--| 

Solo (Rhythm) x2 
E---------------------| 
B---------------------| 
G-2----7---------9----| 
D-2x8--7x8--7----9x8--| 
A-0----5----7x8--7----| 
E-----------5---------| 

Pre-Chorus 3 
E-------------------------| 
B-------------------------| 
G-2-----------7-----9-----| 
D-2x16--5-----7x16--9x16--| 
A-0-----5x16--5-----7-----| 
E-------3-----------------| 

Then: 
*Chorus 3 

Outro Pt.1 x2 
E--------------------------| 
B--------------------------| 
G----------444-7-777-------| 
D-4-44-444-444-7-777-2-----| 
A-4-44-444-222-5-555-2x16--| 
E-2-22-222-----------0-----| 

Outro Pt.2 
E-------------------------------| 
B-------------------------------| 
G----77--99--77--99--77---------| 
D-77-77--99--77--99--77--77777--| 
A-77-55--77--55--77--55--77777--| 
E-55---------------------55555--| 

 
		  

See also:

tabs Ira! - Vitrine Viva tabs Deep Purple - Black Knight tabs Deep Purple - Demonds Eye tabs Deep Purple - Smoke on the Water (ver. 2) tabs Deep Purple - Clearly Quite Absurd tabs Ira! - Envelheço na Cidade (intro)
e-chords

Other versions:

tabs Murphy's Law - Vicky Crown
auto scroll beats size up size down change color hide chords drawings
tab show chords e-chords YouTube Clip e-chords hide all tabs e-chords go to top tab

share