Murderdolls

I Love To Say F*ck

Murderdolls

tabs

save to print version add songbook text version e-mail correct tuner
chordsukulelecavacokeyboardtabbassdrumsharmonicaflute Guitar Pro
close

there isn't a video lesson for this song

chords

I Love To Say F*ck

	  		Intro:

e|-----------|
B|-----------|
G|-----------|
D|-9-9-9-9-9-| x1
A|-9-9-9-9-9-|
E|-7-7-7-7-7-|


Riff princiap/ Verso:

e|---------------------------------|
B|---------------------------------|
G|---------------------------------|
D|-2-2-2-2-5-5-5-5-2-2-------------|
A|-2-2-2-2-5-5-5-5-2-2-------------| x13 (alguns scratches nas cordas, na introduçao também)
E|-0-0-0-0-3-3-3-3-0-0-3-3-3-3-3-3-|      
                      |<---------->|
                     Harmonicos Naturais


Pre-chorus riff:

e|---------------------------------|
B|---------------------------------|
G|---------------------------------|
D|-2-2-2-2-5-5-5-5-2-2-4-4-5-5-6-6-|
A|-2-2-2-2-5-5-5-5-2-2-4-4-5-5-6-6-| x1
E|-0-0-0-0-3-3-3-3-0-0-2-2-3-3-4-4-|


Chorus:

Guitarra 1:

e|---------------------------------|
B|---------------------------------|
G|---------------------------------|
D|-7~~-----------------------------|
A|-7~~-----------------------------|
E|-5~~-----------------------------|

Guitarra 2:

e|---------------------------------|
B|---------------------------------|
G|---------------------------------|
D|-7~~~~~--------------------------|
A|---------------------------------|
E|---------------------------------|


Guitarra 1:

e|---------------------------------|
B|---------------------------------|
G|---------------------------------|
D|-2~~-----------------------------|
A|-2~~-----------------------------|
E|-0~~-----------------------------|

Guitarra 2:

e|---------------------------------|
B|---------------------------------|
G|---------------------------------|
D|-2~~~~~--------------------------|
A|---------------------------------|
E|---------------------------------|


Guitarra 1:

e|---------------------------------|
B|---------------------------------|
G|---------------------------------|
D|-7~~-----------------------------|
A|-7~~-----------------------------|
E|-5~~-----------------------------|

Guitarra 2:

e|---------------------------------|
B|---------------------------------|
G|---------------------------------|
D|-7~~~~~--------------------------|
A|---------------------------------|
E|---------------------------------|


Guitarra 1:

e|---------------------------------|
B|---------------------------------|
G|---------------------------------|
D|-9~~-----------------------------|
A|-9~~-----------------------------|
E|-7~~-----------------------------|

Guitarra 2:

e|---------------------------------|
B|---------------------------------|
G|---------------------------------|
D|-9~~~~~--------------------------|
A|---------------------------------|
E|---------------------------------|

Então toque:

Riff princiap/Verso x13

Pre-Chorus Riff x1

Chorus

Riff principal/Verso x4

Solo:  (a outra guitarra toca o Riff princiap/Verso junto com o solo solo)

e|--------------------------------------------------------------|
B|--------------------------------------------------------------|
G|-14b16-16-14b16-16-14-16-14b16(gradual)-16-16-16-16r14-12-----|
D|----------------------------------------------------------14~-| x2
A|--------------------------------------------------------------|
E|--------------------------------------------------------------|

e|--------------------------------------------------------------|
B|-------------------12----12----12-12-12-12-12-12--------------|
G|-14b16(gradual)-14b16-14b16-14b16-16-16-16-16-16-16-16-16r14--|
D|--------------------------------------------------------------|
A|--------------------------------------------------------------|
E|--------------------------------------------------------------|

somente baixo e depois:

e|---------------------------------|
B|---------------------------------|
G|---------------------------------|
D|---------------------------------|
A|---------------------------------| x9
E|-0-0-0-0-3-3-3-3-0-0-------------|
 |<------------------>|
       Palm Mute

Então:

Pre-Chorus Riff x1

Chorus

Riff principal/Verse x4


finalmente:

Guitarra 1:			Guitarra 2:

e|-----------------|		e|---------------------|
B|-----------------|		B|---------------------|
G|-----------------|		G|-14b16(toque rapido)-|
D|-2-2-2-2-5-7-7-5-| x25	D|---------------------|
A|-2-2-2-2-5-7-7-5-|		A|---------------------|
E|-0-0-0-0-3-5-5-3-|		E|---------------------|


Ambas as  guitarras:
G|---|----------|
D|-2~|----------|
A|-2~|----------|


   E |
e|---|----------|
B|---|----------|E|-0~|----------|


Finaliza com Intro x1
		  

auto scroll beats size up size down change color hide chords drawings
tab show chords e-chords YouTube Clip e-chords hide all tabs e-chords go to top tab

share