Mukeka di Rato

Viva a Televisão

Mukeka di Rato

tabs Easy easy

save to print version add songbook text version e-mail correct tuner
chordsukulelecavacokeyboardtabbassdrumsharmonicaflute Guitar Pro
close

there isn't a video lesson for this song

chords

Viva a Televisão

	  		 
Tablatura por: deadz+ (ou zoio, se preferir) 
 
Introdução 
e|--------------------------| 
B|--------------------------| 
G|--------------------------| 
D|-----------3----------3---| 
A|--4--4-4-2----4--4-4-2----| 
E|--------------------------| 
 
Riff 1 (p.m) 
e|--------------------------------------------| 
B|--------------------------------------------| 
G|--------------------------------------------| 
D|----------------------------3-----------3---| 
A|--4-(444444444444)-4--4-4-2----4--4-4-2-----| 
E|--------------------------------------------| 
 
Riff 2 (p.m) 
e|---------------------------------------------------------| 
B|---------------------------------------------------------| 
G|-----------------------3-------0p1-------3-------0p1-----| 
D|--4-(444444444444)-4-4---4-2-2-----2-4-4---4-2-2-----2---| 
A|---------------------------------------------------------| 
E|---------------------------------------------------------| 
 
Refrão 
e|------------------------------------------| 
B|------------------------------------------| 
G|----------------6-------------------------| 
D|--6-6--6-4-4-4--6--------3-----------3----| 
A|--6-6--6-4-4-4--4--4-4-2----4--4-4-2------| 
E|--4-4--4-2-2-2----------------------------| 
 
Solo (não tenho certeza se o solo está certo) 
e|-----------4-----------4-----------4-----------4---| 
B|--6--6-6-4-4--6--6-6-4-4--6--6-6-4-4--6--6-6-4-4?--| 
G|--6--6-6-4----6--6-6-4----6--6-6-4----6--6-6-4-----| 
D|---------------------------------------------------| 
A|---------------------------------------------------| 
E|---------------------------------------------------| 
 
---------------------------10-11--12--11--11--10-10-9/4---| 
-6b7-6b7---6b7-6b7-6b7-6b7--------------------------------| 
----------------------------------------------------------| 
----------------------------------------------------------| 
----------------------------------------------------------| 
----------------------------------------------------------| 
 
 
Estrutura: 
Introdução         2x 
Riff 1             4x 
Riff 2             1x 
Riff 1             1x 
Refrão             2x 
Introdução/Solo   4x/1x 
Riff 1             4x 
Riff 2             1x 
Riff 1             1x 
Refrão             4x 
Termine a música tocando a Introdução até o fim 
 
 
_______________________________________________________ 
Contribuição: Daniel Ribeiro dos Anjos([email protected]) 

		  

See also:

tabs Fistt - Minduim tabs Dance of Days - Instantes tabs Fistt - A turma tabs Nilson Chaves - Sabor acai tabs Fenix TX - Ben tabs Fenix TX - Abba Zabba
e-chords

Other versions:

tabs Mukeka di Rato - Viva a Televisão
auto scroll beats size up size down change color hide chords drawings
tab show chords e-chords YouTube Clip e-chords hide all tabs e-chords go to top tab

share