Mudley

Não há mais amor

Mudley

tabs

by  MUDLEY

save to print version add songbook text version e-mail correct tuner
chordsukulelecavacokeyboardtabbassdrumsharmonicaflute Guitar Pro
close

there isn't a video lesson for this song

chords

Não há mais amor

	  		Mudley - Não há mais amor 
 
Intro 
Guitarra do Thom 
E---------------------------------------------------------------------- 
B---------------------------------------------------------------------- 
G---------------------------------------------------------------------- 
D--0-2-3~~----2-3---2-3-5-3-2------------------------------------------ 
A-----------1-----3---------------------------------------------------- 
E---------------------------------------------------------------------- 
 
Guitarra do Cebo 
E---------------------------------------------------------------------- 
B---------------------------------------------------------------------- 
G---------------------------------------------------------------------- 
D--xxxx-xxxxx-xxx-xxx-xxxx-xxxx-xxx------------------------------------ 
A---------------------------------------------------------------------- 
E---------------------------------------------------------------------- 
 
Solinho 
Guitarra do Thom 
E-----------------------------------------------------------|---------- 
B-----------------------------------------------------------|---------- 
G-----------------------------------------------------------|---------- 
D--0-3/0-2/0-0-5-0-3/0-2/0-0-7/0-5/0-3/0-0-2/0-3/0-5/0-3----|---4x----- 
A-----------------------------------------------------------|---------- 
E-----------------------------------------------------------|---------- 
 
Guitarra do Cebo 
D D Bb C 
 
Não sei porque viver as mentiras... 
Guitarra do Thom 
E--------------------------------------------------------------------|- 
B--------------------------------------------------------------------|- 
G--3-333-5-555-------------------------------------------------------|-  
D--5-555-8-888--0-3/0-2/0-0-5-0-3/0-2/0-0-7/0-5/0-3/0-0-2/0-3/0-5/0-2|-  2x 
A--------------------------------------------------------------------|- 
E--------------------------------------------------------------------|- 
 
Guitarra do Cebo 
G Bb D D - 2x 
 
Não é mais suficiente morrerem sozinhas... 
Guitarra do Thom 
E---------------------------------------------------------------------- 
B---------------------------------------------------------------------- 
G---------------------------------------------------------------------- 
D-101010101010--0-3/0-2/0-0-5-0-3/0-2/0-0-7/0-5/0-3/0-0-2/0-3/0-5/0-2-- 
A-8-888-7-777---------------------------------------------------------- 
E---------------------------------------------------------------------- 
 
Guitarra do Cebo 
Bb A D D 
 
As pessoas ficaram tão egoístas... 
Guitarra do Thom 
E---------------------------------------------------------------------- 
B---------------------------------------------------------------------- 
G--1010101010107-777-12-121212----------------------------------------- 
D--8-888-7-777-5-555-10-101010----------------------------------------- 
A---------------------------------------------------------------------- 
E---------------------------------------------------------------------- 
 
Guitarra do Cebo 
Bb A G C 
 
Refrão: 
Não há mais amor... 
Guitarra do Thom 
E-------------------------|-------------------------------------------- 
B-------------------------|-------------------------------------------- 
G--14-14-14-14-121214-12--|-------------------------------------------- 
D--12-12-10-10-8-8-10-10--|4x------------------------------------------ 
A-------------------------|-------------------------------------------- 
E-------------------------|-------------------------------------------- 
 
Guitarra do Cebo 
D C Bb C 
 
Não é mais o bastanto... 
Guitarra do Thom 
E---------|--------------|-----------------------------------|--------- 
B---------|--------------|-----------------------------------|--------- 
G------10-|-----------12-|--------10xx10x10xx10x9-xx9-x9-----|--------- 
D--7-8----|-5x---8-10----|-5x-----12xx12x12xx12x10xx10x10----|2x------- 
A---------|--------------|-----------------------------------|--------- 
E---------|--------------|-----------------------------------|--------- 
 
Guitarra do Cebo 
A Bb D C - 2x 
 
Quando fecho os olhos e me recordo... 
Guitarra do Thom 
E--------------------------|------------------------------------------- 
B--------------------------|------------------------------------------- 
G-7-777-7-777-101010101010-|-------7--7--10-10-12--12--10--9----------- 
D-5-555-5-555-7-777-8-888--|-2x----5--5--8--8--10--10--10--10---------- 
A--------------------------|------------------------------------------- 
E--------------------------|------------------------------------------- 
 
Guitarra do Cebo 
G A Bb - 2x 
G Bb C 
 
Refrão... 
 
Pré-solo 
Guitarra do Thom 
E---------------------------------------------------------------------- 
B---------------------------------------------------------------------- 
G-10~~xx10~~xx10~~xx10~~----------------------------------------------- 
D-8-~~xx7-~~xx--------------------------------------------------------- 
A-------------10~~xx8~~------------------------------------------------ 
E---------------------------------------------------------------------- 
 
Guitarra do Cebo 
Bb Bb/A G F  
 
Solinho 
Guitarra do Thom 
E---------|------------|-------------|------------|-------------------- 
B---------|------------|-------------|------------|-------------------- 
G----10/7-|-------10/7-|--------10/7-|-------10/7-|-------------------- 
D--8------|4x---7------|4x-----------|4x----------|4x------------------ 
A---------|------------|-----10------|-----8------|-------------------- 
E---------|------------|-------------|------------|-------------------- 
 
E---------|-------------|--------------|--------------|--------------|- 
B---------|-------------|--------------|--------------|--------------|- 
G----10/7-|--------12/9-|--------14/10-|--------17/14-|--------17/14-|- 
D--8------|4x---10------|4x---12-------|4x---15-------|2x---14-------|2x 
A---------|-------------|--------------|--------------|--------------|- 
E---------|-------------|--------------|--------------|--------------|- 
 
E-----------|------------|-------------|------------------------------- 
B-----------|------------|-------------|------------------------------- 
G-----14/10-|-------10/7-|--------12/9-|------------------------------- 
D--12-------|4x---8------|4x---10------|4x----------------------------- 
A-----------|------------|-------------|------------------------------- 
E-----------|------------|-------------|------------------------------- 
 
Guitarra do Cebo 
Bb Bb/A G F  
Bb C D F F/E 
D Bb C 

		  

Full key step upFull key step up
Half key step upHalf key step up
Half key step downHalf key step down
Full key step downFull key step down
hide glossary

See also:

tabs Matanza - As melhores putas do alabama tabs Forfun - O mundo vai girar tabs CPM 22 - 60 Segundos tabs Garage Fuzz - Embedded Needs tabs CPM 22 - Amigos Perdidos tabs Tequila Baby - Negue
e-chords

Other versions:

tabs Mudley - Não há mais amor
auto scroll beats size up size down change color hide chords drawings
tab show chords e-chords YouTube Clip e-chords hide all tabs e-chords go to top tab

share